Arpeggio akkorder i D

Du er her

I dette eksempel spiller vi brudte akkorder, dvs. arpeggio på følgende akkorder: D, G, og A.

Del Arpeggio akkorder i D lektionen på de sociale medier

I dette eksempel spiller vi brudte akkorder, dvs. arpeggio på følgende akkorder: D, G, og A. Vi kører med op og nedstrøg i højre hånd. Det gør vi som akkompagnement til fx. Stop den lille kænguru, men kan selv klart bruges til et hav af andre sange.

Bemærk at G tages som:​

(1)3
(2)3
(3)4

Bemærk at A tages som:

(1)5
(2)5
(3)6

Bemærk at D tages som:

(1)5
(2)7
(3)7

Og vi spiller akkorderne i det brudte mønster der hedder:

(3),(2),(1),(2),(3).

Se video for detaljer

E ||----------2----------------|-----------3----------------| 
B ||-------3--------3----------|--------3--------3----------| 
G ||-2-----------------2-------|--4-----------------4-------| 
D ||---------------------------|----------------------------| 
A ||---------------------------|----------------------------| 
E ||---------------------------|----------------------------| 


-----------5----------------|-----------5---------------||| 
--------5--------5----------|--------7--------7---------||| 
--6-----------------6-------|--7-----------------7------|||
----------------------------|---------------------------||| 
----------------------------|---------------------------||| 
----------------------------|---------------------------|||
Arpeggio akkorder brugt i Stop den lille kænguru
Arpeggio akkorder brugt i Stop den lille kænguru

Facebook kommentarer

Forfatter