Guitar tabulatur guide - del 3

Du er her

Noder og tabs

Del Guitar tabulatur guide - del 3 lektionen på de sociale medier

Løse strenge
Nej der er ikke nogle strenge der skal strammes op her. Løse strenge er det som på engelsk hedder Open Strings, men i Danmark har kloge folk valgt at kalde dem for løse strenge. Hvis det er en hjælp - så tænk på dem som: åbne strengeLøs streng = streng som ikke er trykket ned på gribebrættet, men derimod spilles åbenI tabulatur bliver løse strenge angivet med tallet "0".Dette er en staveøvelse, så spil i dit eget tempo.

Her er det mere vigtigt at du kan læse end at du kan spille, at du forstår tabulaturen er det vigtigste.Sevfølgelig anbefales det dog at du prøver at stave dig igennem det på din guitar.Husk at lytte til lydeksemplet0 = løs streng

  • 1 = første bånd

Første bånd eksempel med løse strenge

E||--1-------------------|----------------------|------------1----0----|
B||-------0--------------|----------------------|-------0--------------|
G||------------1---------|----------------------|--1-------------------|
D||-----------------0----|-----------------0----|----------------------|
A||----------------------|--1---------1---------|----------------------|
E||----------------------|-------0--------------|----------------------|

Her fortsætter vi hvor vi slap.2 = 2. bånd (og ikke 2. finger selv om du nemt kan bruge 2. finger her) 0 = løs streng (hvis du skulle have glemt det :) )

Andet bånd eksempel med løse strenge

E||--0-------------------|----------------------|------------0----2----|
B||-------2--------------|----------------------|-------2--------------|
G||------------0---------|----------------------|--0-------------------|
D||-----------------2----|-----------------2----|----------------------|
A||----------------------|--1---------1---------|----------------------|
E||----------------------|-------2--------------|----------------------|

Her begynder det at blive lidt mere fjendsk, men hvorfor egentlig det? Det er vel fordi vi guitarister kun har 5 fingre på hver hånd, og hvad laver et 7 tal der så? Jo tricky spørgsmål fordi vi ved jo at det er bånd vi taler om og ikke fingre, så med andre ord:

  • 7 = 7. bånd

Men hvilke fingre skal vi bruge? Ja det er op til dig, for det fremgår ikke af tabulaturen, så hvis du spiller fra 7. bånd op til det 10. bånd, så er det en god íde at starte med første finger og afslutte med fjerde finger på 10.bånd, i de fleste tilfælde.

Syvende bånds eksempel med løse strenge

E||--0-------------------|----------------------|------------0----7----|------||
B||-------7--------------|----------------------|-------7--------------|------||
G||------------0---------|----------------------|--0-------------------|------||
D||-----------------7----|-----------------0----|----------------------|------||
A||----------------------|--7---------7---------|----------------------|------||
E||----------------------|-------0--------------|----------------------|------||

Facebook kommentarer

Forfatter