Guitar tabulatur guide - del 4

Prøv at gætte akkorderne der bliver spillet

Du er her

Toner og akkorder opgave
Prøv at gætte akkorderne der bliver spillet (det er de tal i tabulaturen som står ovenover hinanden eller rettere som er stablet oven på hinanden, typisk tre tal).

Husk at strumme akkorden samtidig og ikke spille arpeggio (brudte akkorder) på dem, hvordan du skal spille dem er op til dig, det fortæller tabulatur ikke noget om, med andre ord kan du ikke se det ud fra tabben!

E||----------------------|-------------------|----------------------|
B||-----------------1----|--1----------------|--1-------------------|
G||------------0---------|--0----------------|-------0--------------|
D||-------2--------------|--2----------------|------------2---------|
A||--3-------------------|--3----------------|-----------------3----|
E||----------------------|-------------------|----------------------|

-------------------|----------------------|-------------------|
--1----------------|----------------------|-------------------|
--0----------------|-----------------0----|--0----------------|
--2----------------|------------0---------|--0----------------|
--3----------------|-------2--------------|--2----------------|
-------------------|--3-------------------|--3----------------|

--3-------------------|--3----------------|----------------------|
-------0--------------|--0----------------|-----------------2----|
------------0---------|--0----------------|------------2---------|
----------------------|--0----------------|-------2--------------|
-----------------2----|--2----------------|--0-------------------|
----------------------|--3----------------|----------------------|

-------------------||
--2----------------||
--2----------------||
--2----------------||
--0----------------||
-------------------||