Guitar tabulatur guide - del 5

Du er her

Her bliver du nok nødt til at kigge på guitarens gribebrædt samtidig med at du kigger i tabulaturen.

Del Guitar tabulatur guide - del 5 lektionen på de sociale medier

Fra 12 bånd til 1 bånd - eksempel 1
Her bliver du nok nødt til at kigge på guitarens gribebrædt samtidig med at du kigger i tabulaturen.

E||----------------------|-------6--------------|-------------------------|
B||----------------------|--5---------7---------|-------------------------|
G||-----------------4----|-----------------8----|-------------------------|
D||------------3---------|----------------------|--9----------------------|
A||-------2--------------|----------------------|-------10----------12----|
E||--1-------------------|----------------------|-------------11----------|



-------------------8----|----------------------|----------------------||
--------------9---------|--7-------------------|----------------------||
--------10--------------|-------6--------------|----------------------||
--11--------------------|------------5---------|----------------------||
------------------------|-----------------4----|----------------------||
------------------------|----------------------|--3----2----1----0----||

Den første takt (der hvor der er en lodret streg), kan spilles med 1-4 finger, anden takt lige så, hvis du hele tiden veksler imellem disse fingre så er tabben lettere at læse.
Lydeksempel

Facebook kommentarer

Forfatter