Guitar tabulatur guide - del 6

Du er her

En lille blandet øvelse hvor du går igennem samtlige ting du har lært indtil videre, inden for tabultaturens verden.

Del Guitar tabulatur guide - del 6 lektionen på de sociale medier

Fra 12 bånd til 1 bånd - eksempel 2
Her anbefales det at du spiller med 1-2-3-4 finger, hele vejen igennem, bort set fra det sted i tabulaturen hvor du spiller fra stort tal til lavt tal, f.eks. fra: 11-8 (bånd)

E||--1----2----3----4----|----------------------|-------------------------|
B||----------------------|--5----6----7----8----|-------------------------|
G||----------------------|----------------------|--9----10----11----12----|
D||----------------------|----------------------|-------------------------|
A||----------------------|----------------------|-------------------------|
E||----------------------|----------------------|-------------------------|


-------------------------|----------------------|----------------------||
-------------------------|----------------------|----------------------||
-------------------------|----------------------|----------------------||
--12----11----10----9----|----------------------|----------------------||
-------------------------|--8----7----6----5----|----------------------||
-------------------------|----------------------|--4----3----2----1----||

Facebook kommentarer

Forfatter