Guitar tabulatur guide - del 7

Du er her

En lille blandet øvelse hvor du går igennem samtlige ting du har lært indtil videre, inden for tabultaturens verden.

Del Guitar tabulatur guide - del 7 lektionen på de sociale medier

Fra 12 bånd til 1 bånd - eksempel 3
En lille blandet øvelse hvor du går igennem samtlige ting du har lært indtil videre, inden for tabultaturens verden.

E||--8-------------------|----------------------|------------2---------|
B||-------7--------------|----------------------|-------1---------3----|
G||------------6---------|----------------------|--0-------------------|
D||-----------------5----|-----------------1----|----------------------|
A||----------------------|--4---------2---------|----------------------|
E||----------------------|-------3--------------|----------------------|



----------------------|------------------------|--12---------------------|
----------------------|------------------11----|--------11---------------|
--4-------------------|------------10----------|--------------10---------|
-------5--------------|-------9----------------|--------------------9----|
------------6---------|--8---------------------|-------------------------|
-----------------7----|------------------------|-------------------------|



----------------------|------------2---------|----------------------|--0||
----------------------|-------3---------1----|----------------------|--0||
----------------------|--4-------------------|--0-------------------|--0||
-----------------5----|----------------------|-------0--------------|--0||
--8---------6---------|----------------------|------------0---------|--0||
-------7--------------|----------------------|-----------------0----|--0||

Stav dig gerne igennem øvelsen, behøves ikke at være 100% korrekt rytmisk, vigtigst er at du spiller de toner (tal) der er angivet korrekt

Facebook kommentarer

Forfatter