Guitar tabulatur guide - del 9

Du er her

En lille blandet øvelse hvor du går igennem samtlige ting du har lært indtil videre, inden for tabultaturens verden.

Del Guitar tabulatur guide - del 9 lektionen på de sociale medier

Fingerspils eksempel 2
Et eksempel på vekselbas (kan også spilles med plekter) med skift til akkord, prøv at gætte akkorderne

E||-------2---------2----|-------2---------2----|----------------------|
B||-------3---------3----|-------3---------3----|-------2---------2----|
G||-------2---------2----|-------2---------2----|-------2---------2----|
D||--0-------------------|--0-------------------|--0----2---------2----|
A||------------0---------|------------0---------|------------0---------|
E||----------------------|----------------------|----------------------|

----------------------|-------3---------3----|-------3---------3----||
-------2---------2----|-------2---------2----|-------2---------2----||
-------2---------2----|-------3---------3----|-------3---------3----||
--0----2---------2----|--0-------------------|--0-------------------||
------------0---------|------------0---------|------------0---------||
----------------------|----------------------|----------------------||

Facebook kommentarer

Forfatter