P.A.M.I. øvelse

Du er her

Fingerspil med brug af pami fingre

I denne lektion skal vi i højre hånd bruge pami fingrene til at spille fingerspil hvor bastonen flytter sig sammen med den akkord vi skifter til. Ligesom i forrige øvelse kan du som en naturlig fortsættelse prøve at spille følgende øvelse hvor du igen skifter imellem Am og Em, men denne gang ved brug af: a-m-i og p. Hvor P spiller på (5) streng ved Am, og (6) streng ved E.

    p     a    m    i       p    a    m    i      p     a    m    i  
E||-------0--------------|-------0--------------|-------0--------------|
B||------------1---------|------------1---------|------------0---------|
G||-----------------2----|-----------------2----|-----------------1----|
D||----------------------|----------------------|----------------------|
A||--0-------------------|--0-------------------|----------------------|
E||----------------------|----------------------|--0-------------------|
   p   a    m    i
-------0--------------|-------||
------------0---------|-------||
-----------------1----|-------||
----------------------|-------||
----------------------|-------||
--0-------------------|-------||

Heldigvis kan du ved at lytte og se videoen høre hvordan det er meningen at det skal lyde. Den kan du også bruge til at spille sammen med. I videoen kan man se en tydelig visning af strengene og fingrene. Selvfølgelig med fokus på højre hånd, som er den hånd du bruger til fingerspil. 

Facebook kommentarer

Del P.A.M.I. øvelse lektionen på de sociale medier