Placer fingrene rigtigt på strengene

Du er her

Her følger en lille øvelse i at placere fingrene rigtigt på strengene. I øvelsen skifter vi imellem Am og E.

Del Placer fingrene rigtigt på strengene lektionen på de sociale medier

Her følger en lille øvelse i at placere fingrene rigtigt på strengene. I øvelsen skifter vi imellem Am og E.

Indledende øvelse
Korrekt placeret som vist på billedet, flytter vi fingrene i flok glidende til højre og venstre med neglene, for at sikre os at vi har placeret fingrene rigtigt. Imens du gør det er det vigtigt at du ikke slipper fingrene. Hvis der er en finger der går løs af strengene, så er fingrene ikke mere samlet, og du må starte øvelsen på ny.

Tip
Prøv at slippe fingrene samlet og placere dem tilbage igen, uden at kigge. Du skal føle strengene under neglene. Gentag øvelsen til det falder dig naturligt.

E||-----------0--------|--0----0--------|-----------0--------|--0----0--------|
B||--------2-----2-----|--2----2--------|--------0-----0-----|--0----0--------|
G||-----2-----------2--|--2----2--------|-----1-----------1--|--1----1--------|
D||--------------------|----------------|--------------------|----------------|
A||--0-----------------|--0-------------|--------------------|----------------|
E||--------------------|----------------|--0-----------------|--0----0--------|

--------------------|--------------------|----------------|--------------------|
-----------1--------|-----------1--------|--1----1--------|--------------------|
--------2-----2-----|--------2-----2-----|--2----2--------|-----------1--------|
-----2-----------2--|-----2-----------2--|--2----2--------|--------2-----2-----|
--0-----------------|--0-----------------|--0----0--------|-----2-----------2--|
--------------------|--------------------|----------------|--0-----------------|

--------------------|----------------||
--------------------|----------------||
-----------1--------|--1----1--------||
--------2-----2-----|--2----2--------||
-----2-----------2--|--2----2--------||
--0-----------------|--0----0--------||

Øvelse i at placere fingrene rigtigt:
I øvelsen skifter vi imellem Am og E hvor Vi skiftevis spiller fingerspil og anslå akkorden (strumme) efterfølgende. Vi bruger følgende fingre:

Am

  • (1) a
  • (2) m
  • (3) i
  • (5) p

E

  • (1) a
  • (2) m
  • (3) i
  • (6) p

Nogle steder spiller vi også i m a på (4), (3), og (2).

Se videoen så du kan se hvordan du placerer fingrene rigtigt

Facebook kommentarer

Forfatter