Sådan får du dine tabs at se rigtige ud i notepad (notesblokken)

Du er her

Del Sådan får du dine tabs at se rigtige ud i notepad (notesblokken) lektionen på de sociale medier

Notesblokken eller notepad som den hedder på engelsk er et nyttigt værktøj at skrive en hurtig sang ned som tabulatur. Men ak tit går det galt og kan vi risikere at få et katastrofalt resultat med linier og tal der står zig zag. I denne artikel beskriver vi hvordan du kan få flotte tabs i notesblokken hvergang!

Hvis det driller med at skrive tabs ind i notesblokken(notepad) eller i wordpad osv. Så kan du følge nedenstående råd.

Tabulatur eksempel 1
Tabulatur eksempel 1

Eksempel 1

--0---------3---------|----------------------|------------0---------|
----------------------|-------1----3---------|--3----1---------3----|
----------------------|----------------------|----------------------|
-------2---------2----|-------2---------0----|-------0---------0----|
------------3---------|----------------------|----------------------|
--3-------------------|--3---------3---------|--3---------3---------|

Som du kan se så er det gået helt galt med eksempel 1. Det skyldes ganske enkelt forkert valgt af skrifttype(font).
Vi vælger Courier New skrifttypen

Tabulatur eksempel 2
Tabulatur eksempel 2 - valg af skrifttype

Eksempel 2
I eksempel 2 har vi valgt skrifttypen Courier new og den formår som den eneste at vise tabulaturen korrekt på en enkelt linie.

--0---------3---------|----------------------|------------0---------| 
----------------------|-------1----3---------|--3----1---------3----| 
----------------------|----------------------|----------------------| 
-------2---------2----|-------2---------0----|-------0---------0----| 
------------3---------|----------------------|----------------------| 
--3-------------------|--3---------3---------|--3---------3---------|

Husk altid kun at vælge et enkelt linieskift for at skille linierne ad. Aldrig to linieskift. To linieskift eller mere må kun bruges når du markerer at du starter på et nyt afsnit.

Tabulatur eksempel 3
Tabulatur eksempel 3 - nu ser det bedre ud

Facebook kommentarer

Forfatter