Æblemand Vamp akkorder

Du er her

Om guitarlektionen: Æblemand Vamp akkorder

Æblemand er en vamp. Vamp betyder at der er nogle akkorder der gentages i hele sangen. Spilles en rundgang.

Sådan spiller du: Æblemand Vamp akkorder

Gentag akkorderne: C-Am-F-G*
(gentages 1 gang og ved gentagelsen "dominant" synger du Tak skal du have (og)slut!
*)
Tip

Istedet for G kan du bruge G7 som er endnu bedre (se tabulatur).
Tæl: 1&2&3&4& Eller: 1 - 2 - 3 - 4
Slag: /og/og/og/og/=slag

Del Æblemand Vamp akkorder lektionen på de sociale medier

c-vamp

Pdf

It appears your Web browser is not configured to display PDF files. Download adobe Acrobat eller klik her for at downloade PDF-filen.

Tabulatur(tabs)

E |-----0-----0----|-----1-----1----|----|----|-----0-----0----|
B |-----1-----1----|-----1-----0----|----|----|-----1-----1----|
G |-----0-----2----|-----2-----0----|----|----|-----0-----2----|
D |----------------|----------------|----|----|----------------|
A |--3-----0-------|----------------|----|----|--3-----0-------|
E |----------------|--1-----3-------|----|----|----------------|


-----1-----1----|-----0-----0----|-----1-----1----|-----0-----0----|
-----1-----0----|-----1-----1----|-----1-----0----|-----1-----1----|
-----2-----0----|-----0-----2----|-----2-----0----|-----0-----2----|
----------------|----------------|----------------|----------------|
----------------|--3-----0-------|----------------|--3-----0-------|
--1-----3-------|----------------|--1-----3-------|----------------|


-----1-----1----|-----0-----0----|-----1-----1----||
-----1-----0----|-----1-----1----|-----1-----0----||
-----2-----0----|-----0-----2----|-----2-----0----||
----------------|----------------|----------------||
----------------|--3-----0-------|----------------||
--1-----3-------|----------------|--1-----3-------||

Vamp akkorder brugt i Æblemand
Vamp akkorder brugt i Æblemand

Akkorder

C Am F G7

Sangtekst

Æblemand kom indenfor har du nogen æbler med til mig i dag.... tak skal du have
Æble mand (og) Kom inden-for
(og) Har du nogen-æbler

(pause) med til mig i..dag

Facebook kommentarer

Genre

Børnesange

Spillestil

Strum med tommel eller plekter

Forfatter