Walking bas øvelse 2

Du er her

I denne fortsættelse af øvelse 1 i walking bas bliver vi ved med at bruge en C type akkord og bruger denne flere steder på gribebrættet. Denne gang bruger vi også de andre fingre i højre hånd og ikke kun tommelfinger

E||----------------------|----------------------|
B||--1-------------------|--3-------------------|
G||----------------------|----------------------|
D||-------2---------2----|-------4---------4----|
A||--3-------------------|--5-------------------|
E||------------3---------|------------5---------|

--------------------------------------------------------|----------------------|
--5-----------------------------------------------------|--7-------------------|
--------------------------------------------------------|----------------------|
-----------------------------------------6---------6----|-------8---------8----|
--7-----------------------------------------------------|--9-------------------|
----------------------------------------------7---------|------------9---------|

--------------------------|--------------------------||
---9----------------------|--10----------------------||
--------------------------|--------------------------||
--------10----------10----|--------11----------11----||
--11----------------------|--12----------------------||
--------------11----------|--------------12----------||

Spillestil

Walking bas

Genre

Fingerpicking øvelser