Andantino

Du er her

Om guitarlektionen: Andantino

Andantino er efter min mening det bedste begynder stykke indenfor den klassiske guitar overhovedet. Det er enkelt at spille, let at lære udenad, overskueligt og frem for alt så lyder det smukt og iørefaldende. Skrevet af den spanske komponist Dionisio Aguado f. 1784 d. 1849, som var utrolig pædagogisk i sin undervisning og skrev sin egen guitarskole som stadig bruges den dag i dag. Desuden udviklede han et guitarstativ hvor guitaren står i paratstilling på gulvet i oprejst stilling et såkaldt: Tripodison som sikrer den korrekte stilling under øvning. Aguado udviklede dette stativ for at det skulle være lettere at spille på guitaren da hænderne var mere fri samt skulle guitaren få en større klang.

Sådan spiller du: Andantino

Dette lille søde stykke af Aguado viser en fantastisk balance i højre hånd. Sammen med smukke toner i venstre hånd.Jeg bruger tit stykket som øvelse for højre hånd, alle mine klassiske elever har spillet det. Det anbefales at placere højre hånd: p-i-m-a på A-G-H-E strengene inden du begynder 1. takt. Det anbefales ikke at gribe akkorderne men blot bruge venstrehånds fingre hvor det er nødvendigt i forbindelse med melodien.

Del Andantino lektionen på de sociale medier

Komponist

Dinonisio Aguado

Melodi

Andantino noder og tabs

Video

Tabulatur(tabs)

E||---------------|--------------|--------------|--------------|--------------|
B||---------0--1--|-----1--0-----|-----0--1--3--|-----3--1--0--|--------0--1--|
G||*-----2--------|-----------2--|--------------|--------------|-----2--------|
D||*--------------|--------------|--------------|--------------|--------------|
A||---0-----------|--0-----------|--------------|--------------|--0-----------|
E||---------------|--------------|--0-----------|--0-----------|--------------|

--------0--1--|-----0--------|-------------||------0--------|--------------|
-----3--------|--------------|-------------||---------3--1--|-----0--------|
--------------|-----------1--|--2---------*||*--------------|--------2--1--|
--0-----------|--2-----------|------------*||*--2-----------|--------------|
--------------|--------------|-------0-----||---------------|--------------|
--------------|--------0-----|-------------||---------------|--0-----------|

--------------|-------------|--------------|--------0--1--|-----0--------|
-----1--0-----|-------0-----|--------0--1--|-----3--------|--------------|
-----------2--|-------------|-----2--------|--------------|-----------1--|
--------------|----------2--|--------------|--0-----------|--2-----------|
--0-----------|-------------|--0-----------|--------------|--------------|
--------------|--0----------|--------------|--------------|--------0-----|

-------------||
-------------||
--2---------*||
------------*||
-------0-----||
-------------||

Facebook kommentarer

Genre

Klassisk guitar

mp3

Guitarpro

Forfatter