Auld Lang Syne Fingerstyle forenklet

Du er her

Her får du Auld Lang syne i en forenkleet fingerstyle udgave.

Sådan spiller du: Auld Lang Syne Fingerstyle forenklet

I denne forenklede fingertyle udgave har vi sparet på effekter som hammer on og pull of osv, Desuden har vi udeladt mellemtoner som ikke er en del af melodien. Denne udgave burde kunne spilles af begyndere inden for fingerstyle spillestilen

Auld lang syne

Pdf

It appears your Web browser is not configured to display PDF files. Download adobe Acrobat eller klik her for at downloade PDF-filen.

Tabulatur(tabs)

E |----------------------------|--2-------------------------|
B |--------3--------2--3-------|--------5-----------5-------|
G |--2-------------------------|-----------------7----------|
D |--------0L----0L-0--0L------|--0-------------------------|
A |----------------------------|--------0L----0-----0-------|
E |----------------------------|----------------------------|

--------------------2-------|--5-----7L----7L-7L-7-------|
--7--5--3L----3--3----------|----------------------------|
----------------------------|--------0L----0L-0L-0-------|
--------0L----0-----0L------|--0-------------------------|
----------------------------|----------------------------|
----------------------------|----------------------------|

--7-----5L----5--2--2-------|----------------------------|
----------------------------|--3-----5L----5-----5-------|
----------------------------|-----------------7----------|
--------0L----0-----0L------|--0-------------------------|
----------------------------|--------0L----0-----0L------|
----------------------------|----------------------------|

----------------------------|----------------|--7-----5L----5--2--2-------|
--7--5--3L----3-------------|-----3L----3----|----------------------------|
-----------------4--4-------|--2-------------|----------------------------|
----------------------------|-----0L----0----|--------0L----0-----0L------|
--0--------------2--2-------|--0L-0----------|----------------------------|
--------3L----3-------------|----------------|----------------------------|

----------------------------|--7-----5--------2--2-------|
--3-----5L----5-----5-------|----------------------------|
-----------------7----------|----------------------------|
--0-------------------------|--------0-----------0L------|
--------0L----0-----0L------|--0-------------------------|
----------------------------|----------------------------|

--5-----7L----7L-7L-7--10L--|--10-5--------2--2----------|
----------------------------|-----------------------3L---|
--------0L----0L-0----------|----------------------------|
--0-------------------------|-----0L----0-----0L----0----|
----------------------------|----------------------------|
----------------------------|----------------------------|

----------------------------|----------------------------|
--3--5L----5-----5-----7----|--5--3L----3----------------|
--------------7-------------|--------------4--4-----2L---|
----------------------------|-----0L----0----------------|
-----0L----0L-0--0L----0----|--------------2--2-----0L---|
----------------------------|----------------------------|

----------------------------|----------------------------|
-----3----------------------|----------------------------|
--2-------------------------|----------------------------|
-----0----------------------|----------------------------|
--0-------------------------|----------------------------|
----------------------------|----------------------------|

----------------------------|----------------------------||
----------------------------|----------------------------||
----------------------------|----------------------------||
----------------------------|----------------------------||
----------------------------|----------------------------||
----------------------------|----------------------------||

Facebook kommentarer

Genre

Fingerpicking/fingerstyle

Spillestil

Fingerpicking

Forfatter

Fridrikur