Beaumont Rag

Du er her

Om guitarlektionen: Beaumont Rag

Beaumont Rag er en traditionel ragtime fra Texas, som er ret populær pga. sit letgenkendelige tema. Hør og se et videoklip af Beaumont Rag, hvor du tydeligt ser venstre og højre hånd her: Lyt også til mp3 filen, hvor der er en rytmeguitar med, det kan gøre det enklere at spille.

Sådan spiller du: Beaumont Rag

Som du kan se er den to D7 akkorder, den første i 3 position (ligner c7) og den anden i 1 pos. I højre hånd spiller du bas med tommel og melodi med det du lyster, f.eks pege og langfinger. Så ingen overraskelser der. Rytmen er en anden sag, vi taler jo ragtime, så det må gerne swinge.

Del Beaumont Rag lektionen på de sociale medier

Video

Tabulatur(tabs)

| | | | | | | |
|--------------------------------|--------0-----------0-----------|
|--------------------------------|----------------3-----------3---|
|--------------------------------|----5-------5-------------------|
|--------------------------------|--------4---------------4-------|
|--------------------2---3---4---|5-------------------------------|
|--------------------------------|----------------5---------------|

| | | | | | | |
|0-----------0-------------------|--------3-----------0-----------|
|--------3-----------------------|----0-----------3-----------3---|
|----5---------------5-----------|0-----------0-------------------|
|--------4-----------------------|--------0---------------0-------|
|5-------------------------------|--------------------------------|
|----------------5-------2-------|3---------------3---------------|

| | | | | | | |
|3-----------3-------------------|--------------------------------|
|--------3-----------3-----------|--------1-----------1-----------|
|----0---------------------------|----2-------2---------------2---|
|--------0-----------------------|--------0---------------0-------|
|--------------------------------|--------------------------------|
|3---------------3-------1-------|2---------------2---------------|

| | | | | | | |
|--------------------------------|--------3-----------0-----------|
|1-----------0-------------------|----------------3-----------0---|
|----2---------------2-----------|0-----------0-------------------|
|--------0---------------0-------|--------0---------------0-------|
|--------------------------------|--------------------------------|
|2---------------2---------------|3---------------3---------------|

| | | | | | | |
|3-----------0-------------------|--------0-----------0-----------|
|--------3-----------3-----------|----------------3-----------3---|
|----0---------------------------|----5-------5-------------------|
|--------0-----------------------|--------4---------------4-------|
|------------------------3-------|5-------------------------------|
|3---------------3---------------|----------------5---------------|

| | | | | | | |
|0-----------0-------------------|--------3-----------0-----------|
|--------3-----------------------|----------------3---------------|
|----5---------------5-----------|----0-------0---------------0---|
|--------4-----------------------|--------0---------------0-------|
|5-------------------------------|--------------------------------|
|----------------5-------2-------|3---------------3---------------|

| | | | | | | |
|--------------------------------|3-------3-------3---------------|
|--------0-----------0-----------|1-------1-----------3-----------|
|----0-----------0---------------|--------------------------------|
|3-----------2-----------0-------|--------2---------------5-------|
|--------------------------------|3---------------4---------------|
|--------------------------------|--------------------------------|

| | | | | | | |
|------------0-------------------|--------------------------------|
|3-------3-----------3-----------|--------0---1-----------0-------|
|----4-------------------1-------|----0---------------2-----------|
|--------5---------------0-------|--------2---------------2-------|
|5-------------------------------|0-------------------------------|
|----------------0---------------|----------------2---------------|

| | | | | | | |
|--------3-----------------------|----------------3---------------|
|--------0-----------------------|----------------0---------------|
|0-------0-----------------------|0---------------0---------------|
|--------0-----------------------|--------0-----------------------|
|--------------------2---3---4---|--------------------------------|
|3-------------------------------|3---------------3---------------|

Facebook kommentarer

Genre

Ragtime

Spillestil

Fingerpicking

mp3

Forfatter