Bjørnen sover (melodi)

Du er her

Om guitarlektionen: Bjørnen sover (melodi)

Kært barn har mange navne, kendes også som: Lille Lise, Gubben Noah, Gubben Noach, Bjørnen vågner

Sådan spiller du: Bjørnen sover (melodi)

Skift imellem I og M, og spil tonerne som angivet.

Del Bjørnen sover (melodi) lektionen på de sociale medier

Tabulatur(tabs)

|------------------------0-------|------------------------1-------|
|1-------1-------1---------------|3-------3-------3---------------|
|--------------------------------|--------------------------------|
|--------------------------------|--------------------------------|
|--------------------------------|--------------------------------|
|--------------------------------|--------------------------------|

|0-------------------------------|--------------------------------|
|--------1-------3-------0-------|1---------------1---------------|
|--------------------------------|--------------------------------|
|--------------------------------|--------------------------------|
|--------------------------------|--------------------------------|
|--------------------------------|--------------------------------|

|0-------0-------0-------3-------|1---------------1---------------|
|--------------------------------|--------------------------------|
|--------------------------------|--------------------------------|
|--------------------------------|--------------------------------|
|--------------------------------|--------------------------------|
|--------------------------------|--------------------------------|

|------------------------1-------|0---------------0---------------|
|3-------3-------3---------------|--------------------------------|
|--------------------------------|--------------------------------|
|--------------------------------|--------------------------------|
|--------------------------------|--------------------------------|
|--------------------------------|--------------------------------|

|------------------------0-------|------------------------1-------|
|1-------1-------1---------------|3-------3-------3---------------|
|--------------------------------|--------------------------------|
|--------------------------------|--------------------------------|
|--------------------------------|--------------------------------|
|--------------------------------|--------------------------------|

|0-------------------------------|--------------------------------|
|--------1-------3-------0-------|1---------------1---------------|
|--------------------------------|--------------------------------|
|--------------------------------|--------------------------------|
|--------------------------------|--------------------------------|
|--------------------------------|--------------------------------|

Facebook kommentarer

Genre

Børnesange

Spillestil

Melodispil

Forfatter