Blue Bell

Du er her

Om guitarlektionen: Blue Bell

En fingerpicking perle spillet af Merle Travis på mange af hans albums. Denne version er arrangeret af Marcel Dadi. Der følger video, og tabs.

Sådan spiller du: Blue Bell

Tommel spiller boom chic vekselbas mens melodiens hentes frem på diskant strengene. Lyt til melodien for at høre rytmen. Prøv at spille med lette anslag i højre hånd. Det anbefales at tage F akkorder med tommelfinger. Læg desuden mærke til at D7 eller D spiller med F# i bassen, altså enten med tommel på (6)streng eller 1. finger.

 

Del Blue Bell lektionen på de sociale medier

Pdf

It appears your Web browser is not configured to display PDF files. Download adobe Acrobat eller klik her for at downloade PDF-filen.

Melodi

Blue bell side 1
Blue bell side 2
Blue bell side 3

Video

Tabulatur(tabs)

E |----------------------------|--0L----0--------0L-0-------|----------------|
B |----------------------------|--1L----1--------1L-1-------|--3L-3--1L-1----|
G |-----0-----0--2-----1-------|----------------------------|--0L-0--0L-0----|
D |----------------------------|--------2L----2-----2-------|-----2-----2----|
A |----------------------------|--3-------------------------|--3-------------|
E |----------------------------|--------------3L-3----------|--------3-------|

----------------------------|----------------------------|
--1L----1--------1L-1-------|--0L----0--------0L-0-------|
--2L----2--------2L-2-------|--0L----0--------0L-0-------|
--------3L----3-----3-------|--------0L----0-----0-------|
----------------------------|--2-------------------------|
--1-----------1L-1----------|--------------3L-3----------|

--1--------------1L-1-------|--0L----0--------3L-3-------|--0L-0----------|
-----------0L-0--------0L---|--0--------4L-4-------------|--1L-1----------|
-----2L-2--------------0L---|--0--------4L-4-------------|----------------|
--------0L-0--------0L-0----|--------0L-0--------3-------|-----2-----2L---|
----------------------------|----------------------------|--3-------------|
--3L-3--------3L-3----------|--3-----------3L-3----------|--------3-------|

-----0L-0--------0L-0-------|--------3L----3-------------|
-----1L-1-----4-------------|--2--------------2L-2-------|
-----------0----------------|----------------------------|
--2-----2L-2--------2-------|--------2-----------2-------|
--3L-3----------------------|--0-------------------------|
--------------3L-3----------|--------------0L-0----------|

--1L----1-----0-------------|--0L-0----------|----------------|
-----------------2L-2-------|----------------|--0L-0--1L-1----|
----------------------------|--------2L-2----|----------------|
--------2-----------2-------|-----0-----0----|-----0-----0----|
--0-------------------------|----------------|----------------|
--------------0L-0----------|--2-----2-------|--2-----2-------|

--0L----0--------0L-0-------|----------------------------|
--1L----1--------1L-1-------|--4L----4--------4L-4-------|
----------------------------|--5L----5--------5L-5-------|
--------0L----0-----0-------|--------6L----6-----6-------|
----------------------------|----------------------------|
--2-----------2L-2----------|--4-----------4L-4----------|

----------------------------|----------------------------|
--3L----3--------0L-0-------|--3-------------------------|
--4L----4-----------0-------|--------0--1--2--1--0-------|
--------5L----5-------------|----------------------------|
----------------------------|----------------------------|
--3-----------3L-3----------|--3-------------------------|

--0L----0--------0L-0-------|----------------|----------------------------|
--1L----1--------1L-1-------|--3L-3--1L-1----|--1L----1--------1L-1-------|
----------------------------|--0L-0--0L-0----|--2L----2--------2L-2-------|
--------2L----2-----2-------|-----2-----2----|--------3L----3-----3-------|
--3-------------------------|--3-------------|----------------------------|
--------------3L-3----------|--------3-------|--1-----------1L-1----------|

----------------------------|--1--------------1L-1-------|
--0L----0--------0L-0-------|-----------0L-0--------0L---|
--0L----0--------0L-0-------|-----2L-2--------------0L---|
--------0L----0-----0-------|--------0L-0--------0L-0----|
--2-------------------------|----------------------------|
--------------3L-3----------|--3L-3--------3L-3----------|

--0L----0--------3L-3-------|--------0L----0-------------|
--0--------4L-4-------------|-----------------0L-0-------|
--0--------4L-4-------------|----------------------------|
--------0L-0--------3-------|--------0-----------0-------|
----------------------------|----------------------------|
--3-----------3L-3----------|--0-----------0L-0----------|

--0-----0--------0L-0-------|--------3L----3-------------|
--------------4-------------|--2--------------2L-2-------|
----------------------------|----------------------------|
--------0-----------0-------|--------2-----------2-------|
----------------------------|--0-------------------------|
--0-----------2L-2----------|--------------0L-0----------|

--1L----1-----0-------------|--0L-0----------|----------------|
-----------------2L-2-------|----------------|--0L-0--1L-1----|
----------------------------|--------2L-2----|----------------|
--------2-----------2-------|-----0-----0----|-----0-----0----|
--0-------------------------|----------------|----------------|
--------------0L-0----------|--2-----2-------|--2-----2-------|

--0L----0--------0L-0-------|-----------1--0-------------|
--1L----1--------1L-1-------|--3L----3--------3L-3--1L---|
----------------------------|----------------------------|
--------2L----2-----2-------|--------0L-0--------0L-0----|
--3-------------------------|----------------------------|
--------------3L-3----------|--3-----------3L-3----------|

----------------------------|----------------------------|
--1-----------------0--1L---|--1-------------------------|
-----0L-0-----2-------------|-----0L-0-------------------|
--------2-----------3L-3----|----------------------------|
--3L-3----------------------|--3L-3--------0-----2-------|
--------------1-------------|--------3-------------------|

----------------------------|----------------------------|
-----1L-1-----0--------0L---|--0--------------0L-0-------|
-----------------2L-2-------|-----------2L-2-------------|
--------2-----------0L-0----|--------0L-0--------0-------|
--3L-3----------------------|----------------------------|
--------------3L-3----------|--3-----------3L-3----------|

----------------------------|----------------------------|
--1-----1L----1--1L-1-------|-----0L-0--------0L-0-------|
-----------------------0L---|--0--------2L-2-------------|
--------2-----------2L-2----|--------0L-0--------0-------|
--3-------------------------|--3L-3----------------------|
--------------3L-3----------|--------------3L-3----------|

----------------------------|----------------------------|
-----1L-1-----0--------0L---|--0--------------0L-0-------|
-----------0-----2L-2-------|-----------2L-2--------0----|
--------2L-2--------0L-0----|--------0L-0--------0L-0----|
--3L-3----------------------|----------------------------|
--------------3L-3----------|--3-----------3L-3----------|

--------3-----0--3L-3-------|--3-----0-----3-------------|
--1--------1-----------1----|-----1-----1-----1L-1-------|
----------------------------|-----------------------0----|
--------2L-2--------2L-2----|--------2L-2--------2L-2----|
--3-------------------------|--3L-3----------------------|
--------------3L-3----------|--------------3L-3----------|

-----0L-0-------------------|-----------0L-0-------------|----------------|
--------------3-----1-------|--3L----3--------3L-3-------|--1L-1--3L-3----|
--2--------2----------------|----------------------------|--2L-2--3L-3----|
--------2L-2--------2-------|--------2L-2--------2-------|-----2-----2----|
--0L-0----------------------|----------------------------|--0-------------|
--------------0-------------|--0-----------0L-0----------|--------3-------|

--0--------0L-0-------------|----------------------------|
-----2L-2-------------------|--3L----3--------0L-0-------|
----------------------------|-----------2L-2--------2----|
--------2L-2--------2-------|--------0L-0--------0L-0----|
--0L-0----------------------|----------------------------|
--------------0-------------|--2-----------2L-2----------|

-----------0L-0-------------|----------------------------|
--0--1L-1--------1L-1-------|--3L----3--------------3L---|
-----------------------0----|-----------------0L-0-------|
--------0L-0--------0L-0----|--------0L----0-----0L-0----|
----------------------------|----------------------------|
--2L-2--------2L-2----------|--3-----------3L-3----------|

----------------------------|-----------------0L-0-------|----------------|
--3--0L-0-----1-----4-------|--5L----5-------------------|--3L-3--1L-1----|
--------0-----2-----5-------|--5L----5--------5L-5-------|--0L-0--0L-0----|
----------------------------|--------------------2-------|-----2-----2----|
----------------------------|--3-----7L----7-------------|--3-------------|
--3L-3----------------------|--------------3L-3----------|--------3-------|

----------------------------|----------------------------|
--1L----1--------1L-1-------|--0L----0--------0L-0-------|
--2L----2--------2L-2-------|--0L----0--------0L-0-------|
--------3L----3-----3-------|--------0L----0-----0-------|
----------------------------|--2-------------------------|
--1-----------1L-1----------|--------------3L-3----------|

--1--------------1L-1-------|--0L----0--------3L-3-------|--0L-0----------|
-----------0L-0--------0L---|--0--------4L-4-------------|--1L-1----------|
-----2L-2--------------0L---|--0--------4L-4-------------|----------------|
--------0L-0--------0L-0----|--------0L-0--------3-------|-----2-----2L---|
----------------------------|----------------------------|--3-------------|
--3L-3--------3L-3----------|--3-----------3L-3----------|--------3-------|

-----0L-0--------0L-0-------|--------3L----3-------------|
-----1L-1-----4-------------|--2--------------2L-2-------|
-----------0----------------|----------------------------|
--2-----2L-2--------2-------|--------2-----------2-------|
--3L-3----------------------|--0-------------------------|
--------------3L-3----------|--------------0L-0----------|

--1L----1-----0-------------|--0L-0----------|----------------|
-----------------2L-2-------|----------------|--0L-0--1L-1----|
----------------------------|--------2L-2----|----------------|
--------2-----------2-------|-----0-----0----|-----0-----0----|
--0-------------------------|----------------|----------------|
--------------0L-0----------|--2-----2-------|--2-----2-------|

--0L----0--------0L-0-------|----------------------------|
--1L----1--------1L-1-------|--4L----4--------4L-4-------|
----------------------------|--5L----5--------5L-5-------|
--------0L----0-----0-------|--------6L----6-----6-------|
----------------------------|----------------------------|
--2-----------2L-2----------|--4-----------4L-4----------|

----------------------------|----------------------------|
--3L----3--------0L-0-------|--3-------------------------|
--4L----4-----------0-------|--------0--1--2--1--0-------|
--------5L----5-------------|----------------------------|
----------------------------|----------------------------|
--3-----------3L-3----------|--3-------------------------|

--0L----0--------0L-0-------|----------------|----------------------------|
--1L----1--------1L-1-------|--3L-3--1L-1----|--1L----1--------1L-1-------|
----------------------------|--0L-0--0L-0----|--2L----2--------2L-2-------|
--------2L----2-----2-------|-----2-----2----|--------3L----3-----3-------|
--3-------------------------|--3-------------|----------------------------|
--------------3L-3----------|--------3-------|--1-----------1L-1----------|

----------------------------|--1--------------1L-1-------|
--0L----0--------0L-0-------|-----------0L-0--------0L---|
--0L----0--------0L-0-------|-----2L-2--------------0L---|
--------0L----0-----0-------|--------0L-0--------0L-0----|
--2-------------------------|----------------------------|
--------------3L-3----------|--3L-3--------3L-3----------|

--0L----0--------3L-3-------|--------0L----0-------------|
--0--------4L-4-------------|-----------------0L-0-------|
--0--------4L-4-------------|----------------------------|
--------0L-0--------3-------|--------0-----------0-------|
----------------------------|----------------------------|
--3-----------3L-3----------|--0-----------0L-0----------|

--0-----0--------0L-0-------|--------3L----3-------------|
--------------4-------------|--2--------------2L-2-------|
----------------------------|----------------------------|
--------0-----------0-------|--------2-----------2-------|
----------------------------|--0-------------------------|
--0-----------2L-2----------|--------------0L-0----------|

--1L----1-----0-------------|--0L-0----------|----------------|
-----------------2L-2-------|----------------|--0L-0--1L-1----|
----------------------------|--------2L-2----|----------------|
--------2-----------2-------|-----0-----0----|-----0-----0----|
--0-------------------------|----------------|----------------|
--------------0L-0----------|--2-----2-------|--2-----2-------|

--0L----0--------0L-0-------|-----------1--0-------------|
--1L----1--------1L-1-------|--3L----3--------3L-3--1L---|
----------------------------|----------------------------|
--------2L----2-----2-------|--------0L-0--------0L-0----|
--3-------------------------|----------------------------|
--------------3L-3----------|--3-----------3L-3----------|

----------------------------|----------------------------|
--1-----------------0--1L---|--1-------------------------|
-----0L-0-----2-------------|-----0L-0-------------------|
--------2-----------3L-3----|----------------------------|
--3L-3----------------------|--3L-3--------0-----2-------|
--------------1-------------|--------3-------------------|

----------------------------|----------------------------|
-----1L-1-----0--------0L---|--0--------------0L-0-------|
-----------------2L-2-------|-----------2L-2-------------|
--------2-----------0L-0----|--------0L-0--------0-------|
--3L-3----------------------|----------------------------|
--------------3L-3----------|--3-----------3L-3----------|

----------------------------|----------------------------|
--1-----1L----1--1L-1-------|-----0L-0--------0L-0-------|
-----------------------0L---|--0--------2L-2-------------|
--------2-----------2L-2----|--------0L-0--------0-------|
--3-------------------------|--3L-3----------------------|
--------------3L-3----------|--------------3L-3----------|

----------------------------|----------------------------|
-----1L-1-----0--------0L---|--0--------------0L-0-------|
-----------0-----2L-2-------|-----------2L-2--------0----|
--------2L-2--------0L-0----|--------0L-0--------0L-0----|
--3L-3----------------------|----------------------------|
--------------3L-3----------|--3-----------3L-3----------|

--------3-----0--3L-3-------|--3-----0-----3-------------|
--1--------1-----------1----|-----1-----1-----1L-1-------|
----------------------------|-----------------------0----|
--------2L-2--------2L-2----|--------2L-2--------2L-2----|
--3-------------------------|--3L-3----------------------|
--------------3L-3----------|--------------3L-3----------|

-----0L-0-------------------|-----------0L-0-------------|----------------|
--------------3-----1-------|--3L----3--------3L-3-------|--1L-1--3L-3----|
--2--------2----------------|----------------------------|--2L-2--3L-3----|
--------2L-2--------2-------|--------2L-2--------2-------|-----2-----2----|
--0L-0----------------------|----------------------------|--0-------------|
--------------0-------------|--0-----------0L-0----------|--------3-------|

--0--------0L-0-------------|----------------------------|
-----2L-2-------------------|--3L----3--------0L-0-------|
----------------------------|-----------2L-2--------2----|
--------2L-2--------2-------|--------0L-0--------0L-0----|
--0L-0----------------------|----------------------------|
--------------0-------------|--2-----------2L-2----------|

-----------0L-0-------------|----------------------------|
--0--1L-1--------1L-1-------|--3L----3--------------3L---|
-----------------------0----|-----------------0L-0-------|
--------0L-0--------0L-0----|--------0L----0-----0L-0----|
----------------------------|----------------------------|
--2L-2--------2L-2----------|--3-----------3L-3----------|

----------------------------|-----------------0L-0-------|----------------|
--3--0L-0-----1-----4-------|--5L----5-------------------|--3L-3--1L-1----|
--------0-----2-----5-------|--5L----5--------5L-5-------|--0L-0--0L-0----|
----------------------------|--------------------2-------|-----2-----2----|
----------------------------|--3-----7L----7-------------|--3-------------|
--3L-3----------------------|--------------3L-3----------|--------3-------|

----------------------------|----------------------------|
--1L----1--------1L-1-------|--0L----0--------0L-0-------|
--2L----2--------2L-2-------|--0L----0--------0L-0-------|
--------3L----3-----3-------|--------0L----0-----0-------|
----------------------------|--2-------------------------|
--1-----------1L-1----------|--------------3L-3----------|

--1--------------1L-1-------|--0L----0--------3L-3-------|--0L-0----------|
-----------0L-0--------0L---|--0--------4L-4-------------|--1L-1----------|
-----2L-2--------------0L---|--0--------4L-4-------------|----------------|
--------0L-0--------0L-0----|--------0L-0--------3-------|-----2-----2L---|
----------------------------|----------------------------|--3-------------|
--3L-3--------3L-3----------|--3-----------3L-3----------|--------3-------|

-----0L-0--------0L-0-------|--------3L----3-------------|
-----1L-1-----4-------------|--2--------------2L-2-------|
-----------0----------------|----------------------------|
--2-----2L-2--------2-------|--------2-----------2-------|
--3L-3----------------------|--0-------------------------|
--------------3L-3----------|--------------0L-0----------|

--1L----1-----0-------------|--0L-0----------|----------------|
-----------------2L-2-------|----------------|--0L-0--1L-1----|
----------------------------|--------2L-2----|----------------|
--------2-----------2-------|-----0-----0----|-----0-----0----|
--0-------------------------|----------------|----------------|
--------------0L-0----------|--2-----2-------|--2-----2-------|

--0L----0--------0L-0-------|----------------------------|
--1L----1--------1L-1-------|--4L----4--------4L-4-------|
----------------------------|--5L----5--------5L-5-------|
--------0L----0-----0-------|--------6L----6-----6-------|
----------------------------|----------------------------|
--2-----------2L-2----------|--4-----------4L-4----------|

----------------------------|----------------------------|
--3L----3--------0L-0-------|--3-------------------------|
--4L----4-----------0-------|--------0--1--2--1--0-------|
--------5L----5-------------|----------------------------|
----------------------------|----------------------------|
--3-----------3L-3----------|--3-------------------------|

--0L----0--------0L-0-------|----------------|----------------------------|
--1L----1--------1L-1-------|--3L-3--1L-1----|--1L----1--------1L-1-------|
----------------------------|--0L-0--0L-0----|--2L----2--------2L-2-------|
--------2L----2-----2-------|-----2-----2----|--------3L----3-----3-------|
--3-------------------------|--3-------------|----------------------------|
--------------3L-3----------|--------3-------|--1-----------1L-1----------|

----------------------------|--1--------------1L-1-------|
--0L----0--------0L-0-------|-----------0L-0--------0L---|
--0L----0--------0L-0-------|-----2L-2--------------0L---|
--------0L----0-----0-------|--------0L-0--------0L-0----|
--2-------------------------|----------------------------|
--------------3L-3----------|--3L-3--------3L-3----------|

--0L----0--------3L-3-------|--------0L----0-------------|
--0--------4L-4-------------|-----------------0L-0-------|
--0--------4L-4-------------|----------------------------|
--------0L-0--------3-------|--------0-----------0-------|
----------------------------|----------------------------|
--3-----------3L-3----------|--0-----------0L-0----------|

--0-----0--------0L-0-------|--------3L----3-------------|
--------------4-------------|--2--------------2L-2-------|
----------------------------|----------------------------|
--------0-----------0-------|--------2-----------2-------|
----------------------------|--0-------------------------|
--0-----------2L-2----------|--------------0L-0----------|

--1L----1-----0-------------|--0L-0----------|----------------|
-----------------2L-2-------|----------------|--0L-0--1L-1----|
----------------------------|--------2L-2----|----------------|
--------2-----------2-------|-----0-----0----|-----0-----0----|
--0-------------------------|----------------|----------------|
--------------0L-0----------|--2-----2-------|--2-----2-------|

--0L----0--------0L-0-------|-----------1--0-------------|
--1L----1--------1L-1-------|--3L----3--------3L-3--1L---|
----------------------------|----------------------------|
--------2L----2-----2-------|--------0L-0--------0L-0----|
--3-------------------------|----------------------------|
--------------3L-3----------|--3-----------3L-3----------|

--------------------------0L-0L----------0L---------|--0----|----||
--1-----------0--------------13L---------13L--------|--13---|----||
--------0-----0-----------0L-0L----------0L---------|--0----|----||
--------------0-------------------------------------|-------|----||
--3L----3-----------------3L-3L----------3L---------|--3----|----||
--------------3-------------------------------------|-------|----||

Facebook kommentarer

Genre

Fingerpicking/fingerstyle

Spillestil

Fingerpicking

Guitarpro

Forfatter