Boogie Woogie i G dur øvet

Du er her

Om guitarlektionen: Boogie Woogie i G dur øvet

Denne boogie woogie har sin oprindelse i gammel blues indspilninger med Reverend Gary Davis, Big Bill Broonzy, Ligthning Hopkins, og mange andre, den er siden hen kvikket lidt op brugt i meget rock 'n roll eller mere korrekt rockabilly som Carl Perkins, Sleepy La Beef og Elvis Presley gjorde berømt. Hank Marvin og The Ventures for blot at nævne nogle få benytter sig også meget af denne teknik. DU kan være sikker på at samtlige af de store navne så som Mark Knopfler og Eric Clapton og Jimi Hendrix alle har spillet boogie woogie til hudløshed og at de alle sammen kan spille den i samtlige tonearter, men det kommer vi tilbage til.

Sådan spiller du: Boogie Woogie i G dur øvet

Sværhedsgraden er lidt højere da den er teknisk sværere end de forrige Boogie Woogie i Gdur. Allerede fra takt 1 skal du spille tre toner i det første slag ved G og så igen hver gang du skifter akkord. Det kendte basriff forsætter indtil takt 7 hvor man skal strumme akkorderne i stedet. Ved takt 9 stiger sværhedgraden yderlige da man så pludselig skal til at fingerpicke (spille fingerspil) midt i sangen, og så efter det skal vi op på 8. bånd og spille nogle hurtige toner efterfulgt af noget strum og så igen hurtige løb på 7. bånd og afslutter med bastoner på G og så nogle beskidte nærmest unødvendinge blæretoner til sidst. Denne melodi kan være svære for dem der ikke har mestret boogie woogie stilen endnu, men klø på! Det swinger!

Del Boogie Woogie i G dur øvet lektionen på de sociale medier

Tabulatur(tabs)

E||------3-----3-----3-----3--|-----3-----3-----3-----3---||
B||------0-----0-----0-----0--|-----0-----0-----0-----0---||
G||*-----0-----0-----0-----0--|-----0-----0-----0-----0--*||
D||*--0-----------------------|--0-----------------------*||
A||---2-----0-----2-----3-----|--------3-----2-----0------||
E||---3-----------------------|---------------------------||

------0-----0-----0-----0--|-----0-----0-----0-----0---||
------1-----1-----1-----1--|-----1-----1-----1-----1---||
*--0-----------0-----2-----|--3-----2-----0-----------*||
*--2-----2-----------------|--------------------2-----*||
---3-----------------------|---------------------------||
---------------------------|---------------------------||

-----3-----3-----3-----3--|-----3-----3-----3-----3--|
-----0-----0-----0-----0--|-----0-----0-----0-----0--|
-----0-----0-----0-----0--|-----0-----0-----0-----0--|
--0-----------------------|--0-----------------------|
--2-----0-----2-----3-----|--------3-----2-----0-----|
--3-----------------------|--------------------------|

-----2--2--2--2--2--2--2--|-----0--0--0--0--0--0--0--|
-----3--3--3--3--3--3--3--|-----1--1--1--1--1--1--1--|
-----2--2--2--2--2--2--2--|-----0--0--0--0--0--0--0--|
--0-----------------------|--------------------------|
--------------------------|--3-----------------------|
--------------------------|--------------------------|

-----------3--------------|--------2-----------------|
-----3-----------3--------|--3-----------3-----3-----|
--------4-----------4-----|-----2-----------2--------|
--5-----------5--------0--|-----------0--------------|
--------------------------|-----------------------3--|
--------------------------|--------------------------|

--------------------------|--3--------8--8--------|--------3----3----7--7--|
--1-----1-----1-----1-----|--0--------------9--9--|--------0----2----------|
--------------------------|--0--------------------|--8--8--0----3----------|
--------------------------|--0--------------------|-------------0----------|
-----2-----0-----0--------|-----------------------|------------------------|
-----------------------3--|-----------------------|------------------------|

--------------------------|-------------------------|-----------3--------|
--8--8--------------------|-----------3-------------|--------------------|
--------7--7--------------|-----2/-4-------4/-2--0--|--------------------|
--------------------------|-------------------------|--------------------|
--------------------------|-------------------------|--------------------|
--------------0--3--2--3--|--3----------------------|----3---------------|

------------------|------------------|------------------|------------------||
------------------|------------------|------------------|------------------||
------------------|------------------|------------------|------------------||
------------------|------------------|------------------|------------------||
------------------|------------------|------------------|------------------||
------------------|------------------|------------------|------------------||

Facebook kommentarer

Genre

Rock guitar

Forfatter