Boogie Woogie i G dur lettere øvet

Du er her

Om guitarlektionen: Boogie Woogie i G dur lettere øvet

Denne boogie woogie har sin oprindelse i gammel blues indspilninger med Reverend Gary Davis, Big Bill Broonzy, Ligthning Hopkins, og mange andre, den er siden hen kvikket lidt op brugt i meget rock 'n roll eller mere korrekt rockabilly som Carl Perkins, Sleepy La Beef og Elvis Presley gjorde berømt. Hank Marvin og The Ventures for blot at nævne nogle få benytter sig også meget af denne teknik. DU kan være sikker på at samtlige af de store navne så som Mark Knopfler og Eric Clapton og Jimi Hendrix alle har spillet boogie woogie til hudløshed og at de alle sammen kan spille den i samtlige tonearter, men det kommer vi tilbage til.

Sådan spiller du: Boogie Woogie i G dur lettere øvet

Bassen har pulsen som er den samme som i Boogie Woogie for begyndere. Melodien får et ekstra strum ind som spilles med pegefinger, tommelfinger spiller bastonerne. Fra og med takt 7 stiger sværhedsgraden, og riffet i D-dur skal nok øves flere gange indtil det lyder korrekt.

Tabulatur(tabs)

E||------3-----3-----3-----3--|-----3-----3-----3-----3---||
B||------0-----0-----0-----0--|-----0-----0-----0-----0---||
G||*-----0-----0-----0-----0--|-----0-----0-----0-----0--*||
D||*--------------------------|--0-----------------------*||
A||---------0-----2-----3-----|--------3-----2-----0------||
E||---3-----------------------|---------------------------||

------0-----0-----0-----0--|-----0-----0-----0-----0---||
------1-----1-----1-----1--|-----1-----1-----1-----1---||
*--------------0-----2-----|--3-----2-----0-----------*||
*--------2-----------------|--------------------2-----*||
---3-----------------------|---------------------------||
---------------------------|---------------------------||

-----3-----3-----3-----3--|-----3-----3-----3-----3--|
-----0-----0-----0-----0--|-----0-----0-----0-----0--|
-----0-----0-----0-----0--|-----0-----0-----0-----0--|
--------------------------|--0-----------------------|
--------0-----2-----3-----|--------3-----2-----0-----|
--3-----------------------|--------------------------|

-----2-----2-----2-----2--|-----2-----2-----2-----2--|
-----3-----3-----3-----3--|-----3-----3-----3-----3--|
-----2-----2--2--2--4-----|--5-----4-----2--------2--|
--0-----4-----------------|--------------------4-----|
--------------------------|--------------------------|
--------------------------|--------------------------|

-----0-----0-----0-----0--|-----0-----0-----0-----0--|-------------------|----||
-----1-----1-----1-----1--|-----1-----1-----1-----1--|-------------------|----||
--------------0-----2-----|--3-----2-----0-----------|--0----------------|----||
--------2-----------------|--------------------2-----|--0----------------|----||
--3-----------------------|--------------------------|--2----------------|----||
--------------------------|--------------------------|--3----------------|----||

Facebook kommentarer

Genre

Rock guitar

Forfatter