Buck Dancers Choice

Du er her

Om guitarlektionen: Buck Dancers Choice

En glad bluegrass melodi som er perfekt både til fingerspil og til solospil, og så kan den også bruges som akkompagnement.
Mest kendt med Sam McGee fra The Country Gentlemen, som var pioner indenfor countryguitar genren.

Sådan spiller du: Buck Dancers Choice

Sangstemmen (melodien) er enkel og skal ikke overspilles. Et godt tip er at forsøge at få det til at swinge og ikke spille alt for rent, gerne en anelse beskidt, mere "ka boom" rytme, end nøjagtige toner. Melodien burde være ligetil men så er det at vi har den afskyelige E dur turnaround, men fortvivl ikke, her er en god måde at spille den på: Placer i højre hånd, samtlige (minus lillefinger) fingre startende på 5. streng og spil ned derfra hurtigt, dvs. først 5. så 4. så 3. og til slut 2. streng, lyt til mp3 filen

Del Buck Dancers Choice lektionen på de sociale medier

Pdf

It appears your Web browser is not configured to display PDF files. Download adobe Acrobat eller klik her for at downloade PDF-filen.

Melodi

buck dancers choice

Video

Tabulatur(tabs)

E||-----------0-------------|----------------------|----------------0-------|
B||---1-------------3-------|-------1--------------|--1-------1--3----------|
G||*-------0-----------0----|--2----2----0----0----|-------0-----------0----|
D||*--2----2-----------2----|-------3----2----2----|--2----2-----------2----|
A||---3---------------------|--3---------3---------|--3---------------------|
E||--------------3----------|--1-------------------|-------------3----------|

------------3---------|----------0-------------|----------------------|
--0-------------------|--1-------------3-------|-------1--------------|
-------0---------0----|-------0-----------0----|--2----2----0----0----|
-------0---------0----|--2----2-----------2----|-------3----2----2----|
--2---------2---------|--3---------------------|--3---------3---------|
--3---------3---------|-------------3----------|--1-------------------|

------------------------|-----------------------||--------------------------|
-----1--------0---------|-------0----1----------||---1----1----0-----0------|
--2-----2--2-------2----|--0--------------0----*||*-------0--------1---1----|
--------3----------3----|-------0----2----2----*||*--2----2----0-2-----2----|
--3---------------------|--2---------3----------||---3---------2------------|
--1-----------1---------|--3--------------------||--------------------------|

----------------------|-----------------0----|------------3----------||
----------------------|--1----1----3---------|--0--------------------||
--2----2----0----0----|-------0---------0----|-------0---------0----*||
-------3----2----2----|--2----2---------2----|-------0---------0----*||
--3---------3---------|--3-------------------|--2---------2----------||
--1-------------------|------------3---------|--3---------3----------||

------------------------|----------------------||--------------------------|
-----1--------0---------|-------0----1---------||---1----1----0-----0------|
--2-----2--2-------2----|--0--------------0----||*-------0--------1---1----|
--------3----------3----|-------0----2----2----||*--2----2----0-2-----2----|
--3---------------------|--2---------3---------||---3---------2------------|
--1-----------1---------|--3-------------------||--------------------------|

----------------------|-----------------0----|------------3----------||
----------------------|--1----1----3---------|--0--------------------||
--2----2----0----0----|-------0---------0----|-------0---------0----*||
-------3----2----2----|--2----2---------2----|-------0---------0----*||
--3---------3---------|--3-------------------|--2---------2----------||
--1-------------------|------------3---------|--3---------3----------||

------------------------|----------------------|----2/-3----2----1----|
-----1--------0---------|-------0----1---------|----4/-5----4----3----|
--2-----2--2-------2----|--0--------------0----|----------------------|
--------3----------3----|-------0----2----2----|----------------------|
--3---------------------|--2---------3---------|----------------------|
--1-----------1---------|--3-------------------|----------------------|

--0--------3--------|------------------||
--1--------3--------|------------------||
-----------2--------|------------------||
-----------2--------|------------------||
-----------3--------|------------------||
-----------3--------|------------------||

Facebook kommentarer

Genre

Fingerpicking/fingerstyle

Spillestil

Fingerpicking

mp3

Forfatter