Cacharro

Du er her

Cacharro er skrevet af den danske komponist Bruno Simonsen som har skrevet de populære "Guitaren 1" og "Guitaren 2" bøger som er guitarskoler for klassiske guitarister med nodekendskab eller begyndere som vil lære noder.

Sådan spiller du: Cacharro

Der kan forekomme svære passager i højre hånd hvor fingrene bliver adspredt en hel del. Cacharro er lettest at spille hvis du griber akkorder og lader dem ligge indtil skift eller hvis der spilles toner ind imellem akkordskiftene.

Tabulatur(tabs)

E||----------0-----|--------------------|--------------0-----|
B||-------------3--|--1---0----0--------|-----1-----------3--|
G||----------------|--------2-----2--1--|--2--2--------------|
D||----------------|--------------------|--------------------|
A||----------------|--0-----------------|--0--------0--------|
E||----------------|-----------0--------|--------0-----------|

                                                              
--------------0--1--|--0-------------0--|--0---1-0--4--1--0--|
--1---0----3--------|-------------4-----|--------------------|
--------2-----------|-------0-----------|--1-----------------|
--------------------|-------2-----------|-----------0--------|
--0-----------------|--3-------3--------|--------------------|
-----------3--------|-------------------|--0-----------------|

                                                                
--5--------1-----1--|--0---1-0-----------|---------------0-----|
--------0-----3-----|-----------3--1--0--|--1p0-------------3--|
-----5-----2--------|--1--------0--------|------2--------------|
--3--------0--------|--------------------|---------------------|
--------------------|--------------------|--0---------0--------|
--------------------|--0--------0--------|---------0-----------|

                                                               
--------------------|--------------0-----|--------------0--1--|
--1---0----0--------|-----1-----------3--|--1---0----3--------|
--------2-----2--1--|--2--2--------------|--------2-----------|
--------------------|--------------------|--------------------|
--0-----------------|--0--------0--------|--0-----------------|
-----------0--------|--------0-----------|-----------3--------|

                                                              
--0-------------0--|--0---1-0--4--1--0--|--5--------1-----1--|
-------------4-----|--------------------|--------0-----3-----|
-------0-----------|--1-----------------|-----5-----2--------|
-------2-----------|-----------0--------|--3--------0--------|
--3-------3--------|--------------------|--------------------|
-------------------|--0-----------------|--------------------|

                                                                
--0---1-0-----------|---------------5--5--|--5-----0--1---0----|
-----------3--1--0--|--1p0----------------|--6--------3-----3--|
--1--------0--------|------2--------------|-----7--------------|
--------------------|---------------------|--0--------0--------|
--------------------|--0---------0--------|--------------------|
--0--------0--------|---------0-----------|--------------------|

                                                               
--0-----------------|--------------------|--0-----------5--5--|
--1-----0--1---0----|--3--1--0--0--1--3--|-----1--------------|
-----2-----2-----2--|--1--------1--------|-----2--------------|
--------------------|--------------------|--------------------|
--0--------0--------|--------------------|--0--------0--------|
--------------------|--0--------0--------|--------0-----------|

                                                               
--5-----0--1---0----|--0-----------------|-----------0--1--0--|
--6--------3-----3--|--1-----0--1---0----|--3--1--0-----------|
-----7--------------|-----2-----2-----2--|--1--------1--------|
--0--------0--------|--------------------|--------------------|
--------------------|--0--------0--------|--------------------|
--------------------|--------------------|--0--------0--------|

                                   
-----0-----5------|--------------||
-----1-----5------|--------------||
--2--2-----2------|--------------||
------------------|--------------||
--0--------0------|--------------||
--------0---------|--------------||

Facebook kommentarer

Genre

Klassisk guitar

Guitarpro

Forfatter

Fridrikur