Dallas Rag

Du er her

Om guitarlektionen: Dallas Rag

En frisk og iørefaldende ragtime melodi som er indspillet af store navne som Stefan Grossman og Mark Knopfler.

Sådan spiller du: Dallas Rag

Et godt tip er at spille melodien med så få kræfter i højre hånd som muligt, og undgå for meget 'boom chic' i bassen.
Jeg spiller melodien med tommelplekter og bruger pege og langfinger med negl på diskanten.Når du spiller melodien må du gerne have en fornenmmelse af at dine fingre let skal slippe strengene før du går videre til den næste tone.I starten øver du den selvfølgelig langsomt, og dermed bliver alle akkorder og basløb meget tydeligere. Til sidst kan du jo spille den up tempo, og det specielle ragtime flow kommer jo i takt med at du bliver bedre til at spille sangen.

Del Dallas Rag lektionen på de sociale medier

Pdf

It appears your Web browser is not configured to display PDF files. Download adobe Acrobat eller klik her for at downloade PDF-filen.

Tabulatur(tabs)

E |----------------|-----------------------3----|--1--0--1--3--0-------------|
B |----------------|--------------0-------------|--------------------3-------|
G |----------------|-----0--2--3----------------|----------------------------|
D |----------------|--------3-----------3-------|--------3-------------------|
A |----------------|----------------------------|--------------0-----2-------|
E |-----0--1--2----|--3-----------3-------------|--3-------------------------|


--------------0-----0-------|-----5-----0-----7----------|
--1--0--1--4-----4----------|--------1-------------------|
----------------------------|--------2-----------5-------|
--------2-----------2-------|--2-----------------7-------|
--3-----------3-------------|--------------7-----7g------|
----------------------------|----------------------------|


-----6--7--6--7--------6----|--7--6--7-----------1-------|
--------6--------8--6-------|--------6--8----------------|
--0-----------0-------------|--0-----------0-------------|
----------------------------|----------------------------|
----------------------------|----------------------------|
----------------------------|----------------------------|


--11-------7--8--------3----|--5--3-----0----------------|
----------------------------|--------4-----1-------------|
----------------------------|-----------------2--0-------|
----------------------------|----------------------------|
----------------------------|----------------------------|
--8-----------------3-------|----------------------------|


-----------------------3----|--1--0--1--3--0-------------|
--------------0-------------|--------------------3-------|
-----1--2--3----------------|----------------------------|
--------3-----------3-------|--------3-------------------|
----------------------------|--------------0-----2-------|
--3-----------3-------------|--3-------------------------|


--------------0-----0-------|-----5-----0-----7----------|
--1--0--1--4-----4----------|--------1-------------------|
----------------------------|--------2-----------5-------|
--------2-----------2-------|--2-----------2-----7-------|
--3-----------3-------------|----------------------------|
----------------------------|----------------------------|


--8--7--8--10-8-------------|--------------------0-------|
-----------------10---------|--8-----8--10----8----------|
--------7-----------7--9----|-----9----------------------|
----------------------------|--10----9-----7-----6-------|
--8-----------8-------------|----------------------------|
----------------------------|----------------------------|


-----------------3--0-------|-----0--1--2----|--------3-----0-------------|
--------------0-------------|--1-------------|--------0--------3----------|
--0--1--2--3----------------|----------------|----------------------------|
--0-----3-----2-----0-------|----------------|--------3-----------3-------|
----------------------------|--3--2--1--0----|----------------------------|
----------------------------|----------------|--3-----------0-------------|


-----3--0-----0--3----------|--3-----3-----0-------------|-----0--1--2----|
-----------3----------------|--1-----1--------1----------|----------------|
----------------------------|----------------------------|----------------|
--------3-----------3-------|--------2-----------2-------|----------------|
----------------------------|--3-----------3-------------|--3--2--1--0----|
--3-----------3-------------|----------------------------|----------------|


--------3-----0-------------|
--------0--------3----------|
----------------------------|
--------3-----------3-------|
----------------------------|
--3-----------3-------------|


--------------------3-----------------0-----------------------------------0-----
--------------------0-----------------------------------3-----------------------
--------------------------------------------------------------------------------
--------------------------------------3-----------------------------------------
--------------------------------------------------------------------------------
--3-----------------------------------------------------------------------3-----


------------3-----------------------------------3--4--5--6--7--8L---|
--------------------------------------------------------------------|
--------------------------------------------------------------------|
------------------------------3-------------------------------------|
--------------------------------------------------------------------|
--------------------------------------------------------------------|


--8L-------------------------8--5-----------------------------------3-----------
--------------------------------------------------------------------------------
--------------------------------------------------------------------------------
--------------------------------------------------------------------------------
--------------------------------------------------------------------------------
--------------------------------------------------------------------------------


------------------------0-------------------------------------------------------
------------------------------------------------------------1-------------------
--------------------------------------------------------------------------------
--------------------------------------------------------------------------------
--------------------------------------------------------------------------------
--------------------------------------------------------------------------------


--------------------------------------------------------------------------------
--------------------------------------------------------------------------------
----------------2-----------------------------------0---------------------------
--------------------------------------------------------------------------------
--------------------------------------------------------------------------------
--------------------------------------------------------------------------------


----------------------------------------------------|
----------------------------------------------------|
----------------------------------------------------|
--------1-----------------------------------0L------|
----------------------------------------------------|
----------------------------------------------------|


--------------------------------------------------------------------------------
--------------------------------------------------------------------------------
--------------------------------------------------------------------------------
--0L-------------------------0--------------------------------------------------
--------------------------------3-----------------------------------2-----------
--------------------------------------------------------------------------------


--------------------------------------------------------------------------------
--------------------------------------------------------------------------------
--------------------------------------------------------------------------------
--------------------------------------------------------------------------------
------------------------1-----------------------------------0-------------------
--------------------------------------------------------------------------------


--------------------------------------------------------------------------------
--------------------------------------------------------------------------------
--------------------------------------------------------------------------------
--------------------------------------------------------------------------------
--------------------------------------------------------------------------------
----------------0-----------------------------------1---------------------------


----------------------------------------------------|
----------------------------------------------------|
----------------------------------------------------|
----------------------------------------------------|
----------------------------------------------------|
--------2-----------------------------------3L------|


-----------------------------------3-----------------------------------0--------
-----------------------------------0--------------------------------------------
--------------------------------------------------------------------------------
-----------------------------------3--------------------------------------------
--------------------------------------------------------------------------------
--3L-------------------------3-----------------------------------------3--------


--------------------------------------------------------------------|
---------3----------------------------------------------------------|
--------------------------------------------------------------------|
---------------------------3----------------------------------------|
--------------------------------------------------------------------|
---------------------------------------------------------------3L---|


--------------------------------3-----------------------------------0-----------
--------------------------------------------------------------------------------
--------------------------------------------------------------------------------
--------------------------------------------------------------------3-----------
--------------------------------------------------------------------------------
--3L-------------------------3--------------------------------------------------


------------------------------------------------------------0-------------------
------------------------3-------------------------------------------------------
--------------------------------------------------------------------------------
--------------------------------------------------------------------------------
--------------------------------------------------------------------------------
------------------------------------------------------------3-------------------


----------------3---------------------------------------------------------------
--------------------------------------------------------------------------------
--------------------------------------------------------------------------------
----------------------------------------------------3---------------------------
--------------------------------------------------------------------------------
--------------------------------------------------------------------------------


--------------------------------------------3L------|
----------------------------------------------------|
----------------------------------------------------|
----------------------------------------------------|
--------------------------------------------3L------|
----------------------------------------------------|


--3L-------------------------3-----3-----------------------------------0--------
--------------------------------------------------------------------------------
--------------------------------------------------------------------------------
-----------------------------------2--------------------------------------------
--3L-------------------------3-----------------------------------------3--------
--------------------------------------------------------------------------------


--------------------------------------------------------------------|
---------1----------------------------------------------------------|
--------------------------------------------------------------------|
---------------------------2----------------------------------------|
---------------------------------------------------------------3L---|
--------------------------------------------------------------------|


--------------------------------------------------------------------------------
-----------------------------------1-----------------------------------0--------
--------------------------------------------------------------------------------
-----------------------------------0-----------------------------------1--------
--3L-------------------------3--------------------------------------------------
--------------------------------------------------------------------------------


--------------------------------------------------------------------|
--------------------------------------------------------------------|
---------------------------3-----------------------------------2L---|
---------------------------2----------------------------------------|
--------------------------------------------------------------------|
---------------------------------------------------------------1L---|


--------------------------------------------------------------------------------
-----------------------------------------------------0-----------------1--------
--2L-------------------------2--------------------------------------------------
-----------------------------------3--------------------------------------------
--------------------------------------------------------------------------------
--1L-------------------------1-----------------------------------------1--------


---------------------------------------------------------------0L---|
---------------------------------------------1----------------------|
---------2----------------------------------------------------------|
---------------------------3----------------------------------------|
---------------------------------------------------------------3L---|
--------------------------------------------------------------------|


--0L-------------------------0--------------------------------------0-----------
--------------------------------4-----------------------------------------------
--------------------------------------------------------------------------------
--------------------------------------------------------------------------------
--3L-------------------------3--------------------------------------2-----------
--------------------------------------------------------------------------------


------------------------5-------------------------------------------------------
--------------------------------------------------------------------------------
--------------------------------------------------------------------------------
--------------------------------------------------------------------------------
------------------------------------------------------------0-------------------
--------------------------------------------------------------------------------


----------------3-----------------------------------0---------------------------
--------------------------------------------------------------------------------
--------------------------------------------------------------------------------
----------------------------------------------------0---------------------------
--------------------------------------------------------------------------------
--------------------------------------------------------------------------------


----------------------------------------------------|
----------------------------------------------------|
--------0-------------------------------------------|
----------------------------------------------------|
----------------------------------------------------|
--------------------------------------------3L------|


--------------------------------------------------------------------------------
--------------------------------------------------------------------------------
--------------------------------1-----------------------------------2-----------
--------------------------------------------------------------------3-----------
--------------------------------------------------------------------------------
--3L-------------------------3--------------------------------------------------


--------------------------------------------------------------------------------
------------------------------------------------------------0-------------------
------------------------3-------------------------------------------------------
--------------------------------------------------------------------------------
--------------------------------------------------------------------------------
------------------------------------------------------------3-------------------


----------------3-----------------------------------0---------------------------
--------------------------------------------------------------------------------
--------------------------------------------------------------------------------
--------------------------------------------------------------------------------
----------------------------------------------------0---------------------------
--------------------------------------------------------------------------------


----------------------------------------------------|
--------------------------------------------1L------|
----------------------------------------------------|
----------------------------------------------------|
--------------------------------------------3L------|
----------------------------------------------------|


--------------------------------------------------------------------------------
--1L----------------------------------1-----------------------------------------
--------------------------------------------------------------------------------
--------------------------------------------------------------------------------
--3L----------------------------------3-----------------------------------------
--------------------------------------------------------------------------------


----------------------------------------------------||
----------------------------------------------------||
----------------------------------------------------||
----------------------------------------------------||
----------------------------------------------------||
----------------------------------------------------||

Facebook kommentarer

Genre

Ragtime

Spillestil

Fingerpicking

mp3

Guitarpro

Forfatter