Deep River Blues

Du er her

Om guitarlektionen: Deep River Blues

Deep River Blues er en traditionel amerikansk blues. Populariseret af The Delmore Brothers i 1930'erne som Big River Blues. Senere blev den endnu mere populær takket være Doc Watson som i starten forsøgte at emulere Delmore Brothers lyd på sin egen seks strengede guitar, uden at være klar over at de i virkeligheden spillede på en 4 strenget tenor guitar. Det var først da Doc havde hørt Merle Travis spille sin boom chic på basstrengene at han fik skruet sin egen version sammen. I dag står den som et trademark indenfor fingerpicking. Spil med dæmpet bas og lad rytmen blive styret af bassen og lyt efter et-slaget i hver takt. Spil akkorderne som skrevet står i guitar pro filen, og øv gerne efter midi eller mp3 filen.

Del Deep River Blues lektionen på de sociale medier

Video

Tabulatur(tabs)

                                                        
E||---7--------7-------------|--6--------6-------------|
B||---------5-----------5----|--------5-----------5----|
G||*-----7-----------7-------|-----6-----------6-------|
D||*--------6-----------6----|--------5-----------5----|
A||--------------------------|-------------------------|
E||---0-----------0----------|--0-----------0----------|

  E7                         A7                         E                       
--7--0-----------0-----0--|--3h-2-----0-----------0--|----------------------0--|
-----------8--------5-----|-----------------0h-2-----|----------0-----2--------|
--------------------------|--------------------------|-------------------------|
--------6-----------6-----|--------2-----------2-----|-------2-----------2-----|
--------------------------|--------------------------|-------------------------|
--0-----------0-----------|--0-----------0-----------|--0----------0-----------|

                            B7                                                 
-----------3/-4----------|--2-----------------------|-------3--3--0-----------|
-----0-------------------|-----0-----------0--------|----------------3-----0--|
-----------3/-4----------|-----------2-----------2--|-------------------------|
--------2--------2-------|--------1-----------1-----|-------1-----1-----1-----|
--------------------4----|--2-----------------------|-------------------------|
--0--------0-------------|--------------2-----------|--2-------2--------------|

                                                     E                       
-----------7-------------|--6--------6------------|--7--------0-------------|
--------------------5----|--------5---------------|-----5-------------8--5--|
--------7--------7-------|-----6------------------|--------6----------------|
-----6--------------6----|--------5----------5----|-------------------6-----|
-------------------------|------------------------|-------------------------|
--0-----------0----------|--0-----------0---------|--0-----------0----------|

                            E                        B7                      
--3h-2-----0-------------|--0---------------------|----------3-----2--------|
-----------------0h-2----|----------3-------0-----|----------------------0--|
-------------------------|------------------------|-------------------------|
--------2-----------2----|-------2-------------2--|-------1-----------1-----|
--0----------------------|------------------------|--2----------------------|
--------------0----------|--0----------0----------|-------------2-----------|

  E                                                     E                     
--0------------------0--|-----------0-----------0---||--0--------------------|
------------------------|-----------------0---------||----------0------------|
------------0h-1--------|-----1--------------------*||-----------------------|
-------2----------------|--2-----------2-----------*||-----------------------|
------------------------|---------------------------||-------------0----1----|
--0---------------0-----|--------0-----------0------||--0----4---------------|

  B7                                                      
----------3-----0--------|-----0------------0----|------||
-------------------2h-0--|------------------0----|------||
-------------------------|--1---------------1----|------||
-------1-----------1-----|--------2--------------|------||
--2----------------------|-----------------------|------||
-------------2-----------|--0----------0~--------|------||

 

Facebook kommentarer

Genre

Country blues

Spillestil

Fingerpicking

mp3

Forfatter