Dejlig er jorden fingerstyle arrangement

Du er her

Om guitarlektionen: Dejlig er jorden fingerstyle arrangement

Denne smukke schlesiske folkemelodi fra 1800 tallet har en del akkorder, men forstår man at udnytte gribebrættet korrekt således at man får mest udbytte af harmonierne i højre hånd så kan man godt spille den, men helt nem er den ikke. Niveauet er rimeligt højt, men kender du din vej rundt gribebrættet og er vant til at spille fingerstyle så skal du nok få den lært.

Sådan spiller du: Dejlig er jorden fingerstyle arrangement

Tabulaturen viser tydeligt hvad højre hånd skal lave. Tommelfingeren spiller ikke et typisk fingerpicking mønster dog, men bruges efter behov. Fingerspillet er mere klassisk end fingerstyle men opbygningen dog fingerstyle.

Del Dejlig er jorden fingerstyle arrangement lektionen på de sociale medier

Pdf

It appears your Web browser is not configured to display PDF files. Download adobe Acrobat eller klik her for at downloade PDF-filen.

Video

Tabulatur(tabs)

E |----------------|--0-------------|--2--2--2--2----|--3-----2-------|
B |--3-----3--3----|--0--2--3-------|--3--3--3--3----|--5--5--3-------|
G |--2-----4--4----|-----2--2-------|----------------|-----6--2-------|
D |--0-------------|--------0-------|--0-------------|--------0-------|
A |--------2--2----|-----0----------|--------2-------|-----0----------|
E |----------------|--3-------------|----------------|--0-------------|


--5-----10-7----|--5-------------|--3--2----|-------|--5-----7--5----|
--7-----7--8----|--7-----8--7----|--0--3----|--5----|--2--2--4--4----|
----------------|--------7--7----|-----2----|--6----|-----2----------|
--0-----0-------|--0-----0-------|-----4----|-------|--4-------------|
----------------|----------------|----------|--0----|--------6-------|
----------------|----------------|--0-------|-------|----------------|


--5-----3-------|--3-----5--3----|--3--0--2--2----|--2--2--5--3----|--2--0----|
--5--7--5-------|--5-----2--2----|--3--3--3--3----|--3--3--3--0----|--3--2----|
-----6--4-------|--4-----2--2----|----------------|----------------|----------|
----------------|----------------|--0-----0-------|--------4-------|----------|
----------------|--------4-------|----------------|--2-------------|--0--0----|
--0-----0-------|--0-------------|----------------|-----------3----|----------|


-------||
--3----||
--2----||
--0----||
-------||
-------|

Facebook kommentarer

Genre

Julesange

Spillestil

Fingerpicking

Forfatter