Det Var En Lørdag Aften

Du er her

Om guitarlektionen: Det Var En Lørdag Aften

Det var en lørdag aften jeg sad og vented dig, du loved mig at komme vist, men kom dog ej til mig! du loved mig at komme vist, men kom dog til mig! Jeg ladge mig på sengen og græd så bitterlig, og hver en gang at døren gik jeg tro'de, det var dig. Hvor kan man plukke roser, hvor ingen roser gror! Hvor kan man finde kærlighed, hvor kærlighed ej bor! Jeg ville roser plukke,jeg plukker ingen fler;jeg elsked dig så inderlig,jeg elsker aldrig mer!
Skrevet af anonym dansk komponist

Sådan spiller du: Det Var En Lørdag Aften

I venstre hånd: grib akkorderne og lad dem hvile til næste akkordskift. Der forekommer et enkelt svært skift i takt 9 (optakter iregnet) hvor du skal spille et A på 5. bånd. Det er vigtigt at du her flytter hele hånden og således griber A'et med første finger og bagefter "slider" ned til 1. position igen. - I højre hånd: ingen tips det burde være ligetil at spille. Musikalsk: spil følelsesladet (tænk på teksten).

Del Det Var En Lørdag Aften lektionen på de sociale medier

Pdf

It appears your Web browser is not configured to display PDF files. Download adobe Acrobat eller klik her for at downloade PDF-filen.

Video

Tabulatur(tabs)

E||------|--------------|--0-------0--|--------------|------------||--0--|
B||------|--1--1--------|-------1-----|--3--0-----0--|--1---------||-----|
G||*--0--|--------0--0--|-------------|--------0-----|-----------*||-----|
D||*-----|--------------|-------------|--0-----------|-----------*||-----|
A||------|--3-----------|--0----------|--------------|--3---------||-----|
E||------|--------------|-------------|--------3-----|------------||-----|

--0--0--3--0--|--------3-----|--------5--5--|--3------1--|--0--0--3--0--|
--------------|--3--3-----3--|--1--1--------|------------|--------------|
--------------|--------------|--------------|------------|--------------|
--------------|--------------|--------------|------------|--------------|
--3-----------|--------------|--0-----5-----|--2---------|--3-----------|
--------------|--3-----------|--------------|------------|--------------|

--0-----1-----|--------------|---------||
-----3-----3--|--1h-0-----0--|--1------||
--------------|--------2-----|---------||
--------0-----|--------------|---------||
--2-----------|--------------|--3------||
--------------|--3-----------|---------||

Facebook kommentarer

Genre

Klassisk guitar

mp3

Forfatter