Docs guitar

Du er her

Om guitarlektionen: Docs guitar

Doc Watson overraskede alle ved at spille denne melodi ved den populære koncert Doc Watson on stage hvor han optrådte med sin søn Merle Watson for første gang. I den forbindelse spillede han højst overraskende en melodi som han ikke ville fortælle titlen på, som han sagde: "I aint gonna tell ya what this one is Im just gonna pick it".

Hvordan titlen så blev Docs guitar vides ikke, men der spekuleres i at koncertarrangøren spurgte Doc hvad melodien hed, og at Doc der troede at manden spurgte hvilken guitar han ville spille på, råbte: Docs guitar!, og derfor navnet Docs guitar. Det endnu mere bizare er at Doc aldrig før eller siden har spillet denne melodi som er blevet en fingerpicking perle. Man kan tydeligt høre Merle Travis inspirationen, men ligeså meget inspiration fra Sam MCgee. Den minder meget om Buck dancers choice som vi har dækket tidligere.

Sådan spiller du: Docs guitar

Doc Watson spiller denne melodi i et voldsomt tempo, og det kan du også komme til hvis du bruger den rette teknik og øver langsomt. Husk at respektere at det er tommel der spiller bastoner og de andre tre fingre diskant tonerne. Akkorderne er heldigvis simple og meget af farten bliver kompenseret for med pull off og hammer on, som gør dit spil hurtigere eller rettere får det til at lyde sådan. Hvis du vil bladre igennem tabulaturen Klik på siden for at se et større billede

Del Docs guitar lektionen på de sociale medier

Pdf

It appears your Web browser is not configured to display PDF files. Download adobe Acrobat eller klik her for at downloade PDF-filen.

Video

Tabulatur(tabs)

E |----------------|----------------------------|----------------------------|
B |----------------|-----------1L-1--------1L---|--1--------1--0--------0----|
G |----------------|-----0L-0--------2L-2-------|-----2L-2--------0L-0-------|
D |----------------|--------2L-2--------2L-2----|--------3L-3--------0L-0----|
A |--------0--2----|--3L-3--------0L-0----------|----------------------------|
E |-----3----------|----------------------------|--1L-1--------3L-3----------|

----------------------------|----------------------------|
-----------1L-1--------1L---|--1--------1--0--------0----|
-----0L-0--------2L-2-------|-----2L-2--------0L-0-------|
--------2L-2--------2L-2----|--------3L-3--------0L-0----|
--3L-3--------0L-0----------|----------------------------|
----------------------------|--1L-1--------3L-3----------|

----------------------------|----------------------------|
-----------1L-1--------1L---|--1--------1--0--------0----|
-----0L-0--------2L-2-------|-----2L-2--------0L-0-------|
--------2L-2--------2L-2----|--------3L-3--------0L-0----|
--3L-3--------0L-0----------|----------------------------|
----------------------------|--1L-1--------3L-3----------|

--------0--------1L-1-------|--3--------0L-0-------------|
----------------------------|-----0L-0--------0L-0-------|
----------------------------|----------------------------|
--------2-----------3-------|--------0L-0--------0-------|
--3-------------------------|----------------------------|
--------------1L-1----------|--3L-3--------3L-3----------|

-----------3--0-------------|----------------------------|
--0--1L-1--------3--1-------|-----------1L-1-------------|
----------------------------|--0--2L-2--------2L-2-------|
--------2L-2--------2-------|--------3L-3--------3-------|
--0--3--------3L-3----------|----------------------------|
----------------------------|--1L-1--------1L-1----------|

-----------3--0-------------|----------------------------|
--0--1L-1--------3--1-------|-----------0L-0--------0----|
----------------------------|--0L----0--------2L-2-------|
--------2L-2--------2-------|--------0L-0--------0L-0----|
--0--3--------3L-3----------|----------------------------|
----------------------------|--3-----------3L-3----------|

-----------3--0-------------|----------------------------|
--1L----1--------3--1-------|-----------1L-1-------------|
----------------------------|--0--2L-2--------2L-2-------|
--------2L-2--------2-------|--------3L-3--------3-------|
--3-----------3L-3----------|----------------------------|
----------------------------|--1L-1--------1L-1----------|

----------------------------|----------------------------|
--0L----0--------0L-0-------|--1L----1-------------------|
-----------2L-2-------------|-----------------0L-0-------|
--------0L-0--------0-------|--------2L----2-----2-------|
----------------------------|--3-------------------------|
--3-----------3L-3----------|--------------3L-3----------|

-----------3--0-------------|----------------------------|
--0--1L-1--------3--1-------|-----------1L-1-------------|
----------------------------|--0--2L-2--------2L-2-------|
--------2L-2--------2-------|--------3L-3--------3-------|
--0--3--------3L-3----------|----------------------------|
----------------------------|--1L-1--------1L-1----------|

-----------3--0-------------|----------------------------|
--0--1L-1--------3--1-------|-----------0L-0--------0----|
----------------------------|--0L----0--------2L-2-------|
--------2L-2--------2-------|--------0L-0--------0L-0----|
--0--3--------3L-3----------|----------------------------|
----------------------------|--3-----------3L-3----------|

-----------3--0-------------|----------------------------|
--1L----1--------3--1-------|-----------1L-1-------------|
----------------------------|--0--2L-2--------2L-2-------|
--------2L-2--------2-------|--------3L-3--------3-------|
--3-----------3L-3----------|----------------------------|
----------------------------|--1L-1--------1L-1----------|

----------------------------|----------------------------|
--0L----0--------0L-0-------|--1L----1-------------------|
-----------2L-2-------------|-----------------0L-0-------|
--------0L-0--------0-------|--------2L----2-----2-------|
----------------------------|--3-------------------------|
--3-----------3L-3----------|--------------3L-3----------|

-----------0L-0-------------|----------------------------|
-----------------0L-0-------|--3--------0L-0--------0----|
--0--1L-1-------------------|-----1L-1--------1L-1-------|
--------2L-2--------2-------|--------2L-2--------2L-2----|
----------------------------|----------------------------|
--0L-0--------0L-0----------|--0L-0--------0L-0----------|

----------------------------|----------------------------|
--1--0L-0--0L-0--------0----|--1--0L-0--0L-0-------------|
-----------------2L-2-------|-----------------2L-2-------|
--------2L-2--------2L-2----|--------2L-2--------2-------|
--0L-0----------------------|--0L-0----------------------|
--------------0L-0----------|--------------0L-0----------|

-----------2L-2-------------|--0--2L-2--0L-0-------------|
-----------------3L-3-------|-----------------3L-3-------|
--------2L-2--------2-------|--------2L-2--------2-------|
--0-------------------------|--0L-0----------------------|
--------------0L-0----------|--------------0L-0----------|
----------------------------|----------------------------|

-----------3--0-------------|----------------|-----------3--0-------------|
--0L----0--------3--0-------|-----0----------|--0--1L-1--------3--1-------|
----------------------------|--3-----0L-0----|----------------------------|
--------0L-0--------0-------|-----0-----0----|--------2L-2--------2-------|
----------------------------|----------------|--0--3--------3L-3----------|
--3-----------3L-3----------|--3-----3-------|----------------------------|

----------------------------|-----------3--0-------------|
-----------1L-1-------------|--0--1L-1--------3--1-------|
--0--2L-2--------2L-2-------|----------------------------|
--------3L-3--------3-------|--------2L-2--------2-------|
----------------------------|--0--3--------3L-3----------|
--1L-1--------1L-1----------|----------------------------|

----------------------------|-----------3--0-------------|
-----------0L-0--------0----|--1L----1--------3--1-------|
--0L----0--------2L-2-------|----------------------------|
--------0L-0--------0L-0----|--------2L-2--------2-------|
----------------------------|--3-----------3L-3----------|
--3-----------3L-3----------|----------------------------|

----------------------------|----------------------------|
-----------1L-1-------------|--0L----0--------0L-0-------|
--0--2L-2--------2L-2-------|-----------2L-2-------------|
--------3L-3--------3-------|--------0L-0--------0-------|
----------------------------|----------------------------|
--1L-1--------1L-1----------|--3-----------3L-3----------|

----------------------------|-----------3--0-------------|
--1L----1-------------------|--0--1L-1--------3--1-------|
-----------------0L-0-------|----------------------------|
--------2L----2-----2-------|--------2L-2--------2-------|
--3-------------------------|--0--3--------3L-3----------|
--------------3L-3----------|----------------------------|

----------------------------|-----------3--0-------------|
-----------1L-1-------------|--0--1L-1--------3--1-------|
--0--2L-2--------2L-2-------|----------------------------|
--------3L-3--------3-------|--------2L-2--------2-------|
----------------------------|--0--3--------3L-3----------|
--1L-1--------1L-1----------|----------------------------|

----------------------------|-----------3--0-------------|
-----------0L-0--------0----|--1L----1--------3--1-------|
--0L----0--------2L-2-------|----------------------------|
--------0L-0--------0L-0----|--------2L-2--------2-------|
----------------------------|--3-----------3L-3----------|
--3-----------3L-3----------|----------------------------|

----------------------------|----------------------------|
-----------1L-1-------------|--0L----0--------0L-0-------|
--0--2L-2--------2L-2-------|-----------2L-2-------------|
--------3L-3--------3-------|--------0L-0--------0-------|
----------------------------|----------------------------|
--1L-1--------1L-1----------|--3-----------3L-3----------|

----------------------------|-----------0L-0-------------|
--1L----1-------------------|-----------------0L-0-------|
-----------------0L-0-------|--0--1L-1-------------------|
--------2L----2-----2-------|--------2L-2--------2-------|
--3-------------------------|----------------------------|
--------------3L-3----------|--0L-0--------0L-0----------|

----------------------------|----------------------------|
--3--------0L-0--------0----|--1--0L-0--0L-0--------0----|
-----1L-1--------1L-1-------|-----------------2L-2-------|
--------2L-2--------2L-2----|--------2L-2--------2L-2----|
----------------------------|--0L-0----------------------|
--0L-0--------0L-0----------|--------------0L-0----------|

----------------------------|-----------2L-2-------------|
--1--0L-0--0L-0-------------|-----------------3L-3-------|
-----------------2L-2-------|--------2L-2--------2-------|
--------2L-2--------2-------|--0-------------------------|
--0L-0----------------------|--------------0L-0----------|
--------------0L-0----------|----------------------------|

--0--2L-2--0L-0-------------|-----------3--0-------------|----------------|
-----------------3L-3-------|--0L----0--------3--0-------|-----0----------|
--------2L-2--------2-------|----------------------------|--3-----0L-0----|
--0L-0----------------------|--------0L-0--------0-------|-----0-----0----|
--------------0L-0----------|----------------------------|----------------|
----------------------------|--3-----------3L-3----------|--3-----3-------|

-----------3--0-------------|----------------------------|
--0--1L-1--------3--1-------|-----------1L-1-------------|
----------------------------|--0--2L-2--------2L-2-------|
--------2L-2--------2-------|--------3L-3--------3-------|
--0--3--------3L-3----------|----------------------------|
----------------------------|--1L-1--------1L-1----------|

-----------3--0-------------|----------------------------|
--0--1L-1--------3--1-------|-----------0L-0--------0----|
----------------------------|--0L----0--------2L-2-------|
--------2L-2--------2-------|--------0L-0--------0L-0----|
--0--3--------3L-3----------|----------------------------|
----------------------------|--3-----------3L-3----------|

-----------3--0-------------|----------------------------|
--1L----1--------3--1-------|-----------1L-1-------------|
----------------------------|--0--2L-2--------2L-2-------|
--------2L-2--------2-------|--------3L-3--------3-------|
--3-----------3L-3----------|----------------------------|
----------------------------|--1L-1--------1L-1----------|

----------------------------|----------------------------|
--0L----0--------0L-0-------|--1L----1-------------------|
-----------2L-2-------------|-----------------0L-0-------|
--------0L-0--------0-------|--------2L----2-----2-------|
----------------------------|--3-------------------------|
--3-----------3L-3----------|--------------3L-3----------|

-----------3--0-------------|----------------------------|
--0--1L-1--------3--1-------|-----------1L-1-------------|
----------------------------|--0--2L-2--------2L-2-------|
--------2L-2--------2-------|--------3L-3--------3-------|
--0--3--------3L-3----------|----------------------------|
----------------------------|--1L-1--------1L-1----------|

-----------3--0-------------|----------------------------|
--0--1L-1--------3--1-------|-----------0L-0--------0----|
----------------------------|--0L----0--------2L-2-------|
--------2L-2--------2-------|--------0L-0--------0L-0----|
--0--3--------3L-3----------|----------------------------|
----------------------------|--3-----------3L-3----------|

-----------3--0-------------|----------------------------|
--1L----1--------3--1-------|-----------1L-1-------------|
----------------------------|--0--2L-2--------2L-2-------|
--------2L-2--------2-------|--------3L-3--------3-------|
--3-----------3L-3----------|----------------------------|
----------------------------|--1L-1--------1L-1----------|

----------------------------|----------------------------|
--0L----0--------0L-0-------|--1L----1-------------------|
-----------2L-2-------------|-----------------0L-0-------|
--------0L-0--------0-------|--------2L----2-----2-------|
----------------------------|--3-------------------------|
--3-----------3L-3----------|--------------3L-3----------|

-----------0L-0-------------|----------------------------|
-----------------0L-0-------|--3--------0L-0--------0----|
--0--1L-1-------------------|-----1L-1--------1L-1-------|
--------2L-2--------2-------|--------2L-2--------2L-2----|
----------------------------|----------------------------|
--0L-0--------0L-0----------|--0L-0--------0L-0----------|

----------------------------|----------------------------|
--1--0L-0--0L-0--------0----|--1--0L-0--0L-0-------------|
-----------------2L-2-------|-----------------2L-2-------|
--------2L-2--------2L-2----|--------2L-2--------2-------|
--0L-0----------------------|--0L-0----------------------|
--------------0L-0----------|--------------0L-0----------|

-----------2L-2-------------|--0--2L-2--0L-0-------------|
-----------------3L-3-------|-----------------3L-3-------|
--------2L-2--------2-------|--------2L-2--------2-------|
--0-------------------------|--0L-0----------------------|
--------------0L-0----------|--------------0L-0----------|
----------------------------|----------------------------|

-----------3--0-------------|----------------|-----------3--0-------------|
--0L----0--------3--0-------|-----0----------|--0--1L-1--------3--1-------|
----------------------------|--3-----0L-0----|----------------------------|
--------0L-0--------0-------|-----0-----0----|--------2L-2--------2-------|
----------------------------|----------------|--0--3--------3L-3----------|
--3-----------3L-3----------|--3-----3-------|----------------------------|

----------------------------|-----------3--0-------------|
-----------1L-1-------------|--0--1L-1--------3--1-------|
--0--2L-2--------2L-2-------|----------------------------|
--------3L-3--------3-------|--------2L-2--------2-------|
----------------------------|--0--3--------3L-3----------|
--1L-1--------1L-1----------|----------------------------|

----------------------------|-----------3--0-------------|
-----------0L-0--------0----|--1L----1--------3--1-------|
--0L----0--------2L-2-------|----------------------------|
--------0L-0--------0L-0----|--------2L-2--------2-------|
----------------------------|--3-----------3L-3----------|
--3-----------3L-3----------|----------------------------|

----------------------------|----------------------------|
-----------1L-1-------------|--0L----0--------0L-0-------|
--0--2L-2--------2L-2-------|-----------2L-2-------------|
--------3L-3--------3-------|--------0L-0--------0-------|
----------------------------|----------------------------|
--1L-1--------1L-1----------|--3-----------3L-3----------|

----------------------------|-----------3--0-------------|
--1L----1-------------------|--0--1L-1--------3--1-------|
-----------------0L-0-------|----------------------------|
--------2L----2-----2-------|--------2L-2--------2-------|
--3-------------------------|--0--3--------3L-3----------|
--------------3L-3----------|----------------------------|

----------------------------|-----------3--0-------------|
-----------1L-1-------------|--0--1L-1--------3--1-------|
--0--2L-2--------2L-2-------|----------------------------|
--------3L-3--------3-------|--------2L-2--------2-------|
----------------------------|--0--3--------3L-3----------|
--1L-1--------1L-1----------|----------------------------|

----------------------------|-----------3--0-------------|
-----------0L-0--------0----|--1L----1--------3--1-------|
--0L----0--------2L-2-------|----------------------------|
--------0L-0--------0L-0----|--------2L-2--------2-------|
----------------------------|--3-----------3L-3----------|
--3-----------3L-3----------|----------------------------|

----------------------------|----------------------------|
-----------1L-1-------------|--0L----0--------0L-0-------|
--0--2L-2--------2L-2-------|-----------2L-2-------------|
--------3L-3--------3-------|--------0L-0--------0-------|
----------------------------|----------------------------|
--1L-1--------1L-1----------|--3-----------3L-3----------|

----------------------------|-----------0L-0-------------|
--1L----1-------------------|-----------------0L-0-------|
-----------------0L-0-------|--0--1L-1-------------------|
--------2L----2-----2-------|--------2L-2--------2-------|
--3-------------------------|----------------------------|
--------------3L-3----------|--0L-0--------0L-0----------|

----------------------------|----------------------------|
--3--------0L-0--------0----|--1--0L-0--0L-0--------0----|
-----1L-1--------1L-1-------|-----------------2L-2-------|
--------2L-2--------2L-2----|--------2L-2--------2L-2----|
----------------------------|--0L-0----------------------|
--0L-0--------0L-0----------|--------------0L-0----------|

----------------------------|-----------2L-2-------------|
--1--0L-0--0L-0-------------|-----------------3L-3-------|
-----------------2L-2-------|--------2L-2--------2-------|
--------2L-2--------2-------|--0-------------------------|
--0L-0----------------------|--------------0L-0----------|
--------------0L-0----------|----------------------------|

--0--2L-2--0L-0-------------|-----------3--0-------------|----------------|
-----------------3L-3-------|--0L----0--------3--0-------|-----0----------|
--------2L-2--------2-------|----------------------------|--3-----0L-0----|
--0L-0----------------------|--------0L-0--------0-------|-----0-----0----|
--------------0L-0----------|----------------------------|----------------|
----------------------------|--3-----------3L-3----------|--3-----3-------|

-----------3--0-------------|----------------------------|
--0--1L-1--------3--1-------|-----------1L-1-------------|
----------------------------|--0--2L-2--------2L-2-------|
--------2L-2--------2-------|--------3L-3--------3-------|
--0--3--------3L-3----------|----------------------------|
----------------------------|--1L-1--------1L-1----------|

-----------3--0-------------|----------------------------|
--0--1L-1--------3--1-------|-----------0L-0--------0----|
----------------------------|--0L----0--------2L-2-------|
--------2L-2--------2-------|--------0L-0--------0L-0----|
--0--3--------3L-3----------|----------------------------|
----------------------------|--3-----------3L-3----------|

-----------3--0-------------|----------------------------|
--1L----1--------3--1-------|-----------1L-1-------------|
----------------------------|--0--2L-2--------2L-2-------|
--------2L-2--------2-------|--------3L-3--------3-------|
--3-----------3L-3----------|----------------------------|
----------------------------|--1L-1--------1L-1----------|

----------------------------|----------------|-------|----||
--0L----0--------0L-0-------|--1--0--1L------|--1----|----||
-----------2L-2-------------|--0--0--0L------|--0----|----||
--------0L-0--------0-------|----------------|-------|----||
----------------------------|--3-----3L------|--3----|----||
--3-----------3L-3----------|-----3----------|-------|----||

Facebook kommentarer

Genre

Fingerpicking/fingerstyle

Spillestil

Fingerpicking

Guitarpro

Forfatter