Enkelt sang om frihed akkorder og tekst og strum

Du er her

Om guitarlektionen: Enkelt sang om frihed akkorder og tekst og strum

Her får du akkorder og strum (anslag) til En Enkelt sang om frihed. Du får også teksten med.

Sådan spiller du: Enkelt sang om frihed akkorder og tekst og strum

Spil dette mønster hele vejen igennem:
Ned - ned op - ned - ned op
På samtlige akkorder.

Del Enkelt sang om frihed akkorder og tekst og strum lektionen på de sociale medier

Pdf

It appears your Web browser is not configured to display PDF files. Download adobe Acrobat eller klik her for at downloade PDF-filen.

Melodi

Video

Tabulatur(tabs)

E |--3-----3--3--3-----3--3----|--2-----2--2--2-----2--2----|
B |--0-----0--0--0-----0--0----|--3-----3--3--3-----3--3----|
G |--0-----0--0--0-----0--0----|--2-----2--2--2-----2--2----|
D |--0-----0-----0-----0-------|--0-----0-----0-----0--0----|
A |--2-----2-----2-----2-------|----------------------------|
E |--3>----3-----3-----3-------|----------------------------|

--3-----3--3--3-----3--3----|--1-----1--1--1-----1--1----|
--0-----0--0--0-----0--0----|--0-----0--0--0-----0--0----|
--0-----0--0--0-----0--0----|--0-----0--0--0-----0--0----|
--0-----0-----0-----0-------|--0-----0-----0-----0-------|
--2-----2-----2-----2-------|--2-----2-----2-----2-------|
--3-----3-----3-----3-------|--3-----3-----3-----3-------|

--0-----0--0--0-----0--0----|--0-----0--0--0-----0--0----|
--1-----1--1--1-----1--1----|--1-----1--1--1-----1--1----|
--0-----0--0--0-----0--0----|--0-----0--0--0-----0--0----|
--2-----2-----2--------2----|--2-----2-----2--------2----|
--3-----3-----3--------3----|--3-----3-----3--------3----|
----------------------------|----------------------------|

--3-----3--3--3-----3--3----|--3-----3--3--3-----3--3----|
--0-----0--0--0-----0--0----|--0-----0--0--0-----0--0----|
--0-----0--0--0-----0--0----|--0-----0--0--0-----0--0----|
--0-----0-----0-----0-------|--0-----0-----0-----0-------|
--2-----2-----2-----2-------|--2-----2-----2-----2-------|
--3-----3-----3-----3-------|--3-----3-----3-----3-------|

--2-----2--2--2-----2--2----|--2-----2--2--2-----2--2----|
--3-----3--3--3-----3--3----|--3-----3--3--3-----3--3----|
--2-----2--2--2-----2--2----|--2-----2--2--2-----2--2----|
--0-----0-----0-----0--0----|--0-----0-----0-----0--0----|
----------------------------|----------------------------|
----------------------------|----------------------------|

--0-----0--0--0-----0--0----|--0-----0--0--0-----0--0----|
--0-----0--0--0-----0--0----|--0-----0--0--0-----0--0----|
--0-----0--0--0-----0--0----|--0-----0--0--0-----0--0----|
--2-----2-----2-----2-------|--2-----2-----2-----2-------|
--2-----2-----2-----2-------|--2-----2-----2-----2-------|
--0-----0-----0-----0-------|--0-----0-----0-----0-------|

--0-----0--0--0-----0--0----|--2-----2--2--2-----2--2----|
--1-----1--1--1-----1--1----|--3-----3--3--3-----3--3----|
--0-----0--0--0-----0--0----|--2-----2--2--2-----2--2----|
--2-----2-----2--------2----|--0-----0-----0-----0--0----|
--3-----3-----3--------3----|----------------------------|
----------------------------|----------------------------|

--3-----3--3--3-----3--3----||
--0-----0--0--0-----0--0----||
--0-----0--0--0-----0--0----||
--0-----0-----0-----0-------||
--2-----2-----2-----2-------||
--3-----3-----3-----3-------||

Akkorder

G              D	     G      G7.....
Kom og syng en enkel sang om frihed    
C                         G         G..... 
Syng den højt så alle kan forstå    
D                   Em                Em.....
Folk hvorend I bor, syng nu med i kor
C        D                     G
Vi må ha fred hvis verden skal bestå.

Sangtekst

Alle I som slås i fjerne lande
Ved I eg’ntlig hvad det er der sker?
I gør hvad der blir sagt, marcherer frem i takt
og dræber uden nytte fler og fler.

Kom og syng en enkel sang om frihed
Syng den højt så alle kan forstå
Folk hvorend I bor, syng nu med i kor
Vi må ha fred hvis verden skal bestå.

Hvorfor har man valgt at lave grænser,
og adskilt bror og søster med en mur?
Hvem kan være tolk, for alle verdens folk
så de høje statsmænd ser det ikke dur.

Kom og syng en enkel sang om frihed
Ja, syng den højt så alle kan forstå
Folk hvorend I bor, syng nu med i kor
Vi må ha fred hvis verden skal bestå.

Hør nu alle menn’sker her på jorden:
man mader jer med løgne dag for dag.
Verden den er hård, men jeg håber I forstår
at vi alle kæmper for den samme sag.

Kom og syng en enkel sang om frihed
Syng den højt så alle kan forstå
Folk hvorend I bor, syng nu med i kor
Vi må ha fred hvis verden skal bestå.

Så kom og syng en enkel sang om frihed
Ja, syng den højt så alle kan forstå
Folk hvorend I bor, syng nu med i kor
Vi må ha fred hvis verden skal bestå.

Folk hvorend I bor, syng nu med i kor
For vi må ha fred hvis verden skal bestå.

Facebook kommentarer

Genre

Danske sange

Spillestil

Strum med tommel eller plekter

Forfatter