Entertainer

Du er her

Om guitarlektionen: Entertainer

Har du ikke altid ønsket dig at spille denne ragtime melodi? Nu har du chancen at få den lært. De første to vers er blevet transkriberet. Melodien er skrevet til klaver af Scott Joplin.

Sådan spiller du: Entertainer

Melodien er i G-dur og benytter sig af vekselbas og hurtige toneskift på diskantstrengene og nogen gange også hurtige akkordskift, hvor du typisk knipser to strenge ud af akkorden. Læg mærke til at der ikke er nogen becifring noteret. Det har jeg gjort udfra den overbevisning, at der næsten ikke er tid til at gribe nogen akkord over hoved før man er på over i det næste skift, de toner der skal spilles fremgår af tabben, og derudfra kan du gribe akkorderne. Ellers er der bare flid og hårdt arbejde. På min indspilning har jeg med vilje spillet den "casual" i sin dynamik for at vise at den også kan spilles på en western guitar, den overholder ikke helt den dynamik der er blevet så kendt fra Scott Joplin, melodien er indspillet mere frit, men du kan spille på din egen måde når først du har lært teknikken i venstre hånd. God fornøjelse! Den vil pynte på dit reportorie! Når du har spillet melodien et stykke tid vil du sikkert begynde at spille den mere frit og jamme henover temaet. Det har jeg gjort på følgende optagelse:
entertainer jam.mp3

Del Entertainer lektionen på de sociale medier

Pdf

It appears your Web browser is not configured to display PDF files. Download adobe Acrobat eller klik her for at downloade PDF-filen.

Tabulatur(tabs)

E||--5--7--3--0h-0--2-------|-------------------------|
B||--------------------3----|-----0-------------------|
G||-------------------------|--2-----0----------------|
D||-------------------------|-----------2h-2--4--0----|
A||-------------------------|-------------------------|
E||-------------------------|-------------------------|

--------------------------|---------------------||------3--------3-------3--|
--------------------------|---------------------||---0--------0-------0-----|
--------------------------|---------------2--3--||*-------------------0-----|
-----------------4--2--1--|--0------------------||*--------------3----------|
--0--2--------------------|---------------------||---------0----------------|
--------3--0h-0-----------|---------------------||---3----------------------|

------------------------|-------------------------|-----------------------|
------------------------|--0--------0-------------|-----------------------|
---------------0--2--3--|-----0--2--------0--2----|--0--------------2--3--|
-------2----------0-----|--------0-----------0----|-------0---------0-----|
--3---------------------|-------------------------|-----------------------|
------------3-----------|--3-----------2----------|--3---------3----------|

-----3--------3-------3--|-----------------0-----|-----0-----3-----0-------|
--0--------0-------0-----|--------------------3--|--2-----------------2----|
-------------------0-----|-----------------------|-------------------------|
--------0-----3----------|-------2---------------|--------2-----------2----|
-------------------------|--3---------2----1-----|--0-----------0----------|
--3----------------------|-----------------------|-------------------------|

-----------------------|-----3--------3-------3--|------------------------|
--3--------------------|--0--------0-------0-----|------------------------|
-----------------2--3--|-------------------0-----|---------------0--2--3--|
--0--------------------|--------0-----3----------|-------2----------0-----|
-------3----2----0-----|-------------------------|--3---------------------|
-----------------------|--3----------------------|------------3-----------|

-------------------------|-----------------------|--------------------------|
--0--------0-------------|-----------------------|--0--------0--------------|
-----0--2--------0--2----|--0--------------0--2--|-----0--2--------0--2--0--|
--------0-----------0----|-------0---------0-----|--------0-----3-----3-----|
-------------------------|-----------------------|--------------------------|
--3-----------2----------|--3---------3----------|--3-----------------------|

--------------------------|-------------------------|------------------------||
--0--------0--------------|--0--------0-------------|------------------------||
-----0--2--------0--2--0--|-----0--2--------0--2----|--0--------------2--3--*||
--2-----2-----1-----1-----|--0----------------------|-----------------------*||
--------------------------|--------3-----2-----0----|------------------------||
--------------------------|-------------------------|--3----0----1----2------||

-------------------------|------------------------||--------0-----------------|
--0--------0-------------|---------------0--1--2--||---3-------3-----0--1--2--|
-----0--2--------0--2----|--0---------------------||*-------0-----------------|
--0----------------------|-------0----------0-----||*-------------------0-----|
--------3-----2-----0----|------------------------||--------------------------|
-------------------------|--3---------3-----------||---3----------3-----------|

-------0----------------|-------------------------|------------------------|
--3-------3-----0-------|-------------0-----------|---------------0--1--2--|
-------------------0----|-------0--2-----2--0--2--|--0---------------------|
-------0-----------0----|-------2-----------2-----|-------0----------0-----|
------------------------|--3----------3-----------|------------------------|
--3----------3----------|-------------------------|--3---------3-----------|

-------0-----------------|-------0-----------0----|--2--2-----2-----0-------|
--3-------3-----0--1--2--|--3-------3-----3-------|--------------------2----|
-------------------------|------------------------|-------------------------|
-------0-----------0-----|-------0----------------|--------2-----------2----|
-------------------------|-------------2-----1----|--0-----------0----------|
--3----------3-----------|--3---------------------|-------------------------|

------------------------|-------0-----------------|-------0----------------|
--3------------0--1--2--|--3-------3-----0--1--2--|--3-------3-----0-------|
------------------------|-------------------------|-------0-----------0----|
--0---------------------|-------0-----------0-----|-------------------0----|
-------3----2-----0-----|-------------------------|------------------------|
------------------------|--3----------3-----------|--3----------3----------|

-------------------------|------------------------|--3----0--3-----0--3--0--|
-------------0-----0-----|---------------3--2--3--|-------------------------|
-------0--2-----2--2--2--|--0---------------------|-------------------------|
-------2-----------------|-------0----------------|-------------------------|
--3----------3-----------|------------------------|--3----3-----4-----4-----|
-------------------------|--3---------3-----------|-------------------------|

-------------------------|------------------------|-------------------------||
--------0--3-----0-------|------------0-----------|---------------0--1--2---||
-----0--------------0----|-------0-------2-----0--|------------------------*||
--0-----2----------------|--2----2----------0-----|-------0----------0-----*||
--------------3-----2----|--0---------------------|-------------------------||
-------------------------|------------2-----------|--3---------3------------||

------------------------|-------------------||
------------0-----------|-------------------||
-------0-------2-----0--|-------------------||
--2----2----------0-----|-------------------||
--0---------------------|-------------------||
------------2-----------|--3----------------||

Facebook kommentarer

Genre

Ragtime

Spillestil

Fingerpicking

mp3

Guitarpro

Forfatter