Fur Elise

Du er her

Om guitarlektionen: Fur Elise

I den tid hvor Beethoven levede (1770-1827) var guitaren ikke anerkendt som et seriøst koncertinstrument. Af praktiske årsager vel nok da den var svær at høre uden forstærkere, som ikke fandtes dengang, men også fordi der ikke fandtes mange guitarværker. De store kunstnere som Bach, Mozart, og Beethoven rørte ikke guitaren med en ildtang. Beethoven er dog en nydelse at uanset om man spiller på cello eller mandolin. Jeg har nu, som så mange andre, transkriberet hans Fur Elise for guitar. På klaveret er det en udfodring for enthusiastiske pianister, men på de 6 strenge er den ret nem, og falder under kategorien: let sværhedsgrad, bort set fra de høje positioner, som får den op på mellemklassen. Men det skal tages med forbehold. Jeg har skrevet melodien frit ned efter min hukommelse, og melodien er derfor ikke en ren kopi af samtlige toner fra Beethovens egen udgave, men et frit arrangement på guitaren. Du får mest ud af at studere arrangementet ved at downloade Guitar Pro udgaven, der er akkorder med. Programmet kan hentes gratis i en prøveperiode.

Sådan spiller du: Fur Elise

Som en forøvelse kan du skifte imellem Am og E med arpeggio på: Am: (5) (4) (3) (2) (1) og E: (6) (5) (4) (3) (2) , derefter kan du prøve at spille melodien og fingerspillet sammen. Rytmen er ligetil, stort set ens nodeværdier fra start til slut. God fornøjelse med at spille denne evergreen!

Del Fur Elise lektionen på de sociale medier

Melodi

Tabulatur(tabs)

E||--------0-----0--------|--------------------------|
B||--5--4-----4-----------|--0--3--1--------------0--|
G||-----------------------|-----------2--------2-----|
D||-----------------------|-----------------2--------|
A||-----------------------|--------------0-----------|
E||-----------------------|--------------------------|

--------------------------|--------------0-----------|
-----------0--1--0--------|--------1--3--------------|
--------1-----------2-----|-----2-----------------0--|
-----2--------------------|--2-----------------2-----|
-----------------------0--|-----------------3--------|
--0-----------------------|--------------------------|

-----0--1--0--------------|-----0--------------------|
--1-----------3-----------|--3-----3--1-----------1--|
-----------------------0--|--------------------2-----|
--------------------0-----|-----------------2--------|
--------------------------|--------------0-----------|
-----------------3--------|--------------------------|

-----------------------0--|------------------|--12--11--12--11--12----------|
--3--1--0-----------0-----|------------------|------------------------12----|
-----------------1--------|------------------|------------------------------|
--------------2-----------|------------------|------------------------------|
--------------------------|------------------|------------------------------|
-----------0--------------|------------------|------------------------------|

--10--8---------------0--5--|--7--------------7--8--7--|
---------10-----------------|--------------5-----------|
-------------------5--------|-----------4--------------|
----------------7-----------|--------6-----------------|
----------------------------|--------------------------|
-------------5--------------|-----0--------------------|

--5--------------5--7--8--|--12-----12--12--13--12--10-----|
--------------5-----------|--------------------------------|
-----------5--------------|--------------------------------|
--------7-----------------|------0----------------------0--|
--------------------------|--------------------------------|
-----5--------------------|--------------------------------|

--10--10--12--10--8-----8--8--|--10-----8--7------0-----|
------------------------------|----------------------4--|
------------------------------|-------------------------|
---------------------0--------|-------------------------|
------------------------------|-------------------------|
------------------------------|------0-----0------------|

--0-----0--------------|--------------------------|--------------------------|
-----4-----------0--3--|--1--------------0--------|-----0--1--0--------------|
-----------------------|-----2--------2-----------|--1-----------2--------2--|
-----------------------|-----------2-----------2--|--------------------2-----|
-----------------------|--------0-----------------|-----------------0--------|
-----------------------|--------------------0-----|--------------------------|

--------0--------------0--|--1--0-----------------0--|
--1--3--------------1-----|--------3-----------3-----|
-----------------0--------|-----------------0--------|
--------------2-----------|--------------0-----------|
-----------3--------------|--------------------------|
--------------------------|-----------3--------------|

--------------------------|-----------------0------||
--3--1-----------1--3--1--|--0-----------0---------||
--------------2-----------|-----------1------------||
-----------2--------------|--------2---------------||
--------0-----------------|------------------------||
--------------------------|-----0------------------||

Facebook kommentarer

Genre

Klassisk guitar

mp3

Guitarpro

Forfatter