Glade jul fingerspils melodi

Du er her

Om guitarlektionen: Glade jul fingerspils melodi

Her er "glade jul" arrangeret for fingerspil. Den er bygget op over Chet Atkins's spillestilen, når det gælder overblikket over guitarens gribebræt. Som guitarist er det derfor nødvendigt at du kender til at spille akkorder i andre positioner end de normale første positions akkorder.

Sådan spiller du: Glade jul fingerspils melodi

Du spiller i 5. position i A-dur og kører op og ned af gribebrættet med 3 akkorder: A, E, og D. Du kan se akkorderne ud fra tabben eller ved at se videoen til højre. Bemærk at vi spiller i 4/4 for at få den der Merle Travis bas til at passe. Normalt er den jo i 6/8 eller 3/4.

Del Glade jul fingerspils melodi lektionen på de sociale medier

Glade jul fingerspils melodi teaser

Video

Tabulatur(tabs)

E||----------------------------|---------------------------|
B||--5--L----7p-5--------------|--5--L----7-5--------------|
G||----------------6--L--------|---------------6-----------|
D||-----7-------7-----7-----7--|-----7------7-----7-----7--|
A||--0-------------0-----------|--0------------0-----------|
E||--------0-------------0-----|--------0------------0-----|

--7--L----7-L--4--L----4-L--|--5--L----5----------------|
-----L----------------------|---------------5--L--------|
---------------L------------|---------------------------|
-----6------6-----6------6--|-----7------7-----7-----7--|
----------------------------|--0------------0-----------|
--0-----0------0-----0------|--------0------------0-----|

--2-------2----5-------------|----------------------------|
-----L------------L----9p-7--|--5--L----7p-5--------------|
-----2------2--L----------7--|----------------6--L--------|
--0------------0--7----------|-----7-------7-----7-----7--|
--------0------------0-------|--0-------------0-----------|
-----------------------------|--------0-------------0-----|

-------------------------------|---------------------------|
--7--L----7----10---L----9p-7--|--5--L----7-5--------------|
-----7------7---------------7--|---------------6--L--------|
--0--L----------0---7----------|-----7------7-----7-----7--|
--------0-L------------0-------|--0------------0-----------|
-------------------------------|--------0------------0-----|

--7-----7-7----10---L--7------|--5--L----5-L---9---L--------|
-----L-------------------9----|---------------10---L--------|
----------------L-------------|----------------9---L--------|
-----6------6-------6------6--|-----7------7-------7-----7--|
------------------------------|--0-------------0------------|
--0-----0-------0------0------|--------0--------------0-----|

--5--L---------0--L---------|-------------------||
--------5------------3-0----|-------------------||
----------6-L---------------|--2----------------||
-----7------7-----2------2--|-------------------||
--0-------------------------|--0----------------||

Facebook kommentarer

Genre

Julesange

Spillestil

Fingerspils spillestilen

mp3

Forfatter