Haveje fingerspil

Du er her

Haveje er med tekst og melodi af Jacob Haugaard og blev brugt i filmen Midt on matten med Kim Larsen. Den danske troubadour tog den også med på sin anmelderroste plade Kim Larsen Midt om natten. Du får her et fingerspils akkompagnement til sangen. VI bruger Gallop fingerspillet fra en tidligere tabulatur.

Sådan spiller du: Haveje fingerspil

Du bruger fingerspillet fra Gallop fingerspil.Dvs.: I højre hånd bruger du Tommel på (4) og (3) streng ved D og tilsvarende (6) og (3) på G og (5) og (3) streng ved en A7 akkord. Det specielle er at tommelfingeren bruges to gange efter hinanden så du får: P P M I, i modsætning til P I M I som man kunne fristes til at spille.
(P=tommel, I=pege M=langfinger)

Akkorder

Akkordskift på:
Leje Haveje G Restaurant A7 Rejle D Kone D Skønhedsklinik G Inde A7 Negerdistrikt D

Haveje fingerspil

Pdf

It appears your Web browser is not configured to display PDF files. Download adobe Acrobat eller klik her for at downloade PDF-filen.

Tabulatur(tabs)

E |----------------------------|----------------------------|
B |-----------3>---------------|-----3>----------------0L---|
G |--------2--------2----------|--2--------2--------0-------|
D |--0-----------------0-------|----------------------------|
A |----------------------------|----------------------------|
E |----------------------------|--------------3-------------|


----------------------------|----------------------------|
--0--------------0----------|-----------2>---------------|
-----0--------0--------0----|--------2--------2----------|
----------------------------|----------------------------|
----------------------------|--0-----------------0-------|
--------3-------------------|----------------------------|


----------------------------|----------------------------||
-----2>----------------3L---|--3-------------------------||
--2--------2--------2-------|-----2----------------------||
--------------0-------------|--------0-------------------||
----------------------------|----------------------------||
----------------------------|----------------------------||

Sangtekst

Jeg bor til leje på Haveje i restaurant "Den Gyldne Reje"
min kone hun har en skønhedsklinik inde midt i et negerdistrikt
Så vi ber’ bare guderne om godt vejr ja vi ber’ bare guderne om godt vejr
ah åh yea-he¸ ah åh yea-he¸
Der er mange af de seje der bor til leje på Haveje
min kone vil så gerne eje en strandpromenade på Haveje
Så vi ber’ bare guderne om godt vejr ja vi ber’ bare guderne om godt vejr ah åh yea-he¸
ah åh yea-he¸

Facebook kommentarer

Genre

Danske sange

Spillestil

Fingerspils spillestilen

Forfatter

Fridrikur