Jingle Bells fingerstyle arrangement

Du er her

Om guitarlektionen: Jingle Bells fingerstyle arrangement

En forenklet udgave af Jingle Bells baseret på Chet Atkins spillestil, men arrangeret af Fridrikur Ellefsen. Du får her en fingerstyle udgave af den glade julemelodi. Dermed får du både bas, melodi og toner i én og samme pakke = fingerstyle eller fingerpicking.

Sådan spiller du: Jingle Bells fingerstyle arrangement

Chet Atkins fingerspil. Start med at spille vekselbas i C-F-G7. Derefter spiller du melodi med I og M fingeren. Bemærk at vi kører med 4 bas-slag i hver takt hele vejen igennem.

Ved C: (5) (4) og (6) Ved F: (6) og (5) Ved G7:(6) og (4)

Tabulatur(tabs)

     C                      C                      C                    
     PM                     PM                     PM                   
     Q    Q    Q    Q       Q    Q    Q    Q       Q    Q    Q    Q     
E||-------0--------------|----------------------|-------0--------------|
B||------------3----1----|----------------------|------------3----1----|
G||--0-------------------|--0-------------------|--0-------------------|
D||-------2---------2----|-------2---------2----|-------2---------2----|
A||--3-------------------|--3-------------------|--3-------------------|
E||------------3---------|------------3---------|------------3---------|

  F                      F                      G7                   
  Q    Q    Q    Q       Q    Q    Q    Q       Q    Q    Q    Q     
----------------------|-------1----0---------|----------------------|
----------------------|-----------------3----|--0-------------------|
--2-------------------|--2-------------------|----------------------|
-------3---------3----|-------3---------3----|-------3---------3----|
----------------------|----------------------|----------------------|
--1---------1---------|--1---------1---------|--3---------3---------|

  G7                                            C                    
                                                PM                   
  Q    Q    Q    Q       Q    Q    Q    Q       Q    Q    Q    Q     
--3----1----0---------|--0-------------------|-------0--------------|
-----------------3----|----------------------|------------3----1----|
----------------------|----------------------|--0-------------------|
-------3---------3----|-------2---------2----|-------2---------2----|
----------------------|--3-------------------|--3-------------------|
--3---------3---------|------------3---------|------------3---------|

  C                      C                      F                    
  PM                     PM                                          
  Q    Q    Q    Q       Q    Q    Q    Q       Q    Q    Q    Q     
----------------------|-------0--------------|----------------------|
----------------------|------------3----1----|----------------------|
--0-------------------|--0-------------------|--2-------------------|
-------2---------2----|-------2---------2----|-------3---------3----|
--3-------------------|--3-------------------|----------------------|
------------3---------|------------3---------|--1---------1---------|

  F                      G7                     G7                   
  Q    Q    Q    Q       Q    Q    Q    Q       Q    Q    Q    Q     
-------1----0---------|--3----3----3---------|--3----1----0---------|
-----------------3----|----------------------|-----------------3----|
--2-------------------|----------------------|----------------------|
-------3---------3----|-------3---------3----|-------3---------3----|
----------------------|----------------------|----------------------|
--1---------1---------|--3---------3---------|--3---------3---------|

  Q    Q    Q    Q       Q    Q    Q    Q       Q    Q    Q    Q     
----------------------|--0----0----0---------|--0----0----0---------|
--1-------------------|----------------------|----------------------|
----------------------|----------------------|----------------------|
----------------------|-------2---------2----|-------2---------2----|
------------0----2----|--3-------------------|--3-------------------|
-------3--------------|------------3---------|------------3---------|

  Q    Q    Q    Q       Q    Q    Q    Q       Q    Q    Q    Q     
--0----3--------------|--0-------------------|--1----1----1----1----|
------------1----3----|----------------------|----------------------|
----------------------|----------------------|----------------------|
-------2---------2----|-------2---------2----|-------3---------3----|
--3-------------------|--3-------------------|----------------------|
------------3---------|------------3---------|--1---------1---------|

  Q    Q    Q    Q       Q    Q    Q    Q       Q    Q    Q    Q     
--1----0----0----0----|--0--------------0----|------------3---------|
----------------------|-------3----3---------|--3-------------------|
----------------------|----------------------|----------------------|
-----------------2----|-------3---------3----|-------3---------3----|
-------3--------------|----------------------|----------------------|
--1---------3---------|--3---------3---------|--3---------3---------|

  Q    Q    Q    Q       Q    Q    Q    Q       Q    Q    Q    Q     
--0----0----0---------|--0----0----0---------|--0----3--------------|
----------------------|----------------------|------------1----3----|
----------------------|----------------------|----------------------|
-------2---------2----|-------2---------2----|-------2---------2----|
--3-------------------|--3-------------------|--3-------------------|
------------3---------|------------3---------|------------3---------|

  Q    Q    Q    Q       Q    Q    Q    Q       Q    Q    Q    Q     
--0-------------------|--1----1----1----1----|--1----0----0----0----|
----------------------|----------------------|----------------------|
----------------------|----------------------|----------------------|
-------2---------2----|-------3---------3----|-----------------2----|
--3-------------------|----------------------|-------3--------------|
------------3---------|--1---------1---------|--1---------3---------|

  Q    Q    Q    Q       W                  
--3----3----1---------|-------------------||
-----------------3----|--1----------------||
----------------------|-------------------||
-------3---------3----|-------------------||
----------------------|--3----------------||
--3---------3---------|-------------------||
 

chet atkins

Genre

Julesange

Pdf

It appears your Web browser is not configured to display PDF files. Download adobe Acrobat eller klik her for at downloade PDF-filen.

Facebook kommentarer

Guitarpro

Forfatter