Kemps Jig

Du er her

Kemps Jig er en gammel traditionel klassisk standard melodi. Minder en del om irsk musik, men tilhører det klassiske repetoire.

Sådan spiller du: Kemps Jig

Start med at stemme det dybe E om til D. Det er trillerne der giver den her melodi sjæl. Spil trillerne med: 121, dvs. skift imellem 1. og 2. finger hurtigt. Lyt til mp3 filen for korrekt rytme. Jeg spiller melodien på en western guitar, men fungerer fint på klassisk guitar, og spilles også mest på denne, men jeg syntes at den klingede flot på en western. Ponti cello, bliver brugt, og det betyder at du nogle steder (høres på mp3) skal spille tæt op ad stolen, for at få en mere diskant og hård lyd.

Kemps Jig noder

Tabulatur(tabs)

E||--2--------3--2--|--0--------------------|------------------------|
B||--3--------------|-----3--------5--3--2--|--0-----0--2--3---------|
G||--2--------------|-----------------------|-----2--------2--2------|
D||--0-----------0--|-----4-----------------|--------------0---------|
A||-----------------|--4--2-----------2--0--|------------------------|
E||-----------------|-----------------------|--3--2--0---------------|

                                                                             
-------------2--0--2--|--3--2--0-----------0-----|--------------------------|
----------------------|-----3-----3--2--3-----3--|--2--0-----0-----0--2--3--|
----------------------|-----2--2-----------------|--------2-----2--------2--|
----0--------0--------|-----0--------------------|-----------------------0--|
----------------------|--------4--2-----------2--|--0-----------------------|
----------------------|--------------------------|-----3--2--0--------------|

                                                                           
--------------2--5--2--|--5--2--5--3--2---------|----0--3--0--3--0--------|
-----------------------|-----------------3------|-------------------3--1--|
--2--------------------|------------------------|----0-----0-----0--------|
-----0--------0-----0--|-----0------------------|-------------------------|
-----------------------|------------------------|----3-----3-----3--------|
-----------------------|------------------------|-------------------------|

                                                                              
--------------------------|--------------------------|--------------2--5--2--|
--0--2--3-----------3-----|-----------0-----0--2--3--|-----------------------|
-----------2-----2-----2--|--0-----2--0--2--0--------|--2--------------------|
--------0-----4-----0-----|-----4-----------------0--|-----0--------0-----0--|
-----0--------5-----------|-----5--------------------|-----------------------|
--3-----------------------|-----------3--2--0--------|-----------------------|

                                                      
--3--5--2--5--3--2--0-----|--0--3--0--1--3--0--------|
-----------------------3--|--------------------3--1--|
--------------------------|--0-----0--------0--------|
--------0-----------------|--------------------------|
--------------------------|--3-----3--------3--------|
--------------------------|--------------------------|

                                                                                
--------------------------|--------------------------|-------------------------|
--0--2--3--------------3--|-----0--------------0-----|--0-----0--2--3----------|
-----------2-----0--2-----|--2-----2-----0--2-----2--|-----2-----------2-------|
--------0-----4--------0--|-----------4--------------|--------------0-----0----|
-----0--------5-----------|-----------5--------------|-------------------------|
--3-----------------------|--------------------3--2--|--0----------------------|

Facebook kommentarer

Genre

Klassisk guitar

mp3

Forfatter

Fridrikur