Nobody's Business

Du er her

Denne gamle blues blev spillet af Mississippi John Hurt og er ligetil at spille.

Sådan spiller du: Nobody's Business

Eneste forhindring er slide på 1. streng fra 3. til 5. bånd. Ellers er melodien ligetil at spille, god fornøjelse! P.s. på en eller anden måde er MIDI filen gået helt amok. Den bliver afspillet i et alt for hurtigt tempo. I virkeligheden bør melodien spilles i et moderat tempo.

Tabulatur(tabs)

guitar (Capo 5)

E||---3---------3---------|-----3/5----0-------------|----------------------|
B||-----------------------|------------------3-------|--1---------1---------|
G||*-------0---------0----|---------------------0----|-------2---------2----|
D||*--2----2---------2----|--2------4-----------2----|-------3---------3----|
A||---3-------------------|--3-----------------------|--3---------3---------|
E||-------------3---------|---------------3----------|--1---------1---------|

------------------------|------------------------|-----0h-1----0---------|
-----3--------1---------|----------0--------3----|------------------3----|
-----------2-------2----|--0----0--------0--0----|--------0---------0----|
--------3----------3----|-------0-----------0----|--------0---------0----|
--3-----------3---------|--2----------2----------|--2----------2---------|
--1-----------1---------|--3----------3----------|--3----------3---------|

--0-------------------|-----------------------||----------------------|
----------------------|--1--------------------||--1-------------------|
-------0---------0----|----------------------*||-------0---------0----|
--2----2---------2----|--2-------------------*||--2----2---------2----|
--3---------3---------|--3---------0----2-----||--3-------------------|
------------3---------|-------3---------------||------------3---------|

----------------------||---0---------0---------|-----0--------0---------|
--1-------------------||-----------------------|-----------1-------3----|
----------------------||*-------0---------0----|-------------------0----|
----------------------||*--2----2---------2----|--2-----2----------2----|
--3---------0----2----||---3-------------------|--3---------------------|
-------3--------------||-------------3---------|--------------3---------|

----------------------|------------------------|------------------------|
--1---------1---------|-----3--------1---------|----------0--------3----|
-------2---------2----|-----------2-------2----|--0----0--------0--0----|
-------3---------3----|--------3----------3----|-------0-----------0----|
--3---------3---------|--3-----------3---------|--2----------2----------|
--1---------1---------|--1-----------1---------|--3----------3----------|

-----0h-1----0---------|--0-------------------|-----------------------||
------------------3----|----------------------|--1--------------------||
--------0---------0----|-------0---------0----|----------------------*||
--------0---------0----|--2----2---------2----|--2-------------------*||
--2----------2---------|--3-------------------|--3---------0----2-----||
--3----------3---------|------------3---------|-------3---------------||

----------------------|----------------------||---3---------3---------|
--1-------------------|--1-------------------||-----------------------|
----------------------|----------------------||*-------0---------0----|
--2----2---------2----|----------------------||*--2----2---------2----|
--3-------------------|--3---------0----2----||---3-------------------|
------------3---------|-------3--------------||-------------3---------|

-----3/5----0-------------|----------------------|------------------------|
------------------3-------|--1---------1---------|-----3--------1---------|
---------------------0----|-------2---------2----|-----------2-------2----|
--2------4-----------2----|-------3---------3----|--------3----------3----|
--3-----------------------|--3---------3---------|--3-----------3---------|
---------------3----------|--1---------1---------|--1-----------1---------|

------------------------|-----0h-1----0---------|--0-------------------|
----------0--------3----|------------------3----|----------------------|
--0----0--------0--0----|--------0---------0----|-------0---------0----|
-------0-----------0----|--------0---------0----|--2----2---------2----|
--2----------2----------|--2----------2---------|--3-------------------|
--3----------3----------|--3----------3---------|------------3---------|

-----------------------||----------------------|--0----------------||
--1--------------------||--1-------------------|--1----------------||
----------------------*||-------0---------0----|--0----------------||
--2-------------------*||--2----2---------2----|--2----------------||
--3---------0----2-----||--3-------------------|--3----------------||
-------3---------------||------------3---------|-------------------||

Facebook kommentarer

Genre

Blues

Spillestil

Fingerpicking

Forfatter

Fridrikur