O Tannenbaum - Oh Christmas Tree melodi

Du er her

O Tannenbaum er en tysk melodi af ukendt komponist. Du får her melodistemmen som noder og tabulatur i tonearten C-dur. Sværhedsgraden er på begynderniveau. Hvis du har lært at spille en C-dur skala og toner i forskellige rytmer så kan du sagtens spille den melodi.  Bemærk at der ikke følger akkorder med, men med lidt snilde kan du selv regne akkorderne ud fra de toner du spiller.

O Tannenbaum

Pdf

It appears your Web browser is not configured to display PDF files. Download adobe Acrobat eller klik her for at downloade PDF-filen.

O Tannenbaum

Tabulatur(tabs)

E |-------|----------------------------------------|
B |-------|--1--------1--1-----------------3-------|
G |--0----|----------------------------------------|
D |-------|----------------------------------------|
A |-------|----------------------------------------|
E |-------|----------------------------------------|


--0--------0--0-----------------0-------|-----0--1-------------|
----------------------------------------|--3-----------0-------|
----------------------------------------|----------------------|
----------------------------------------|----------------------|
----------------------------------------|----------------------|
----------------------------------------|----------------------|


-----------------3----|--3--0--5--------3----|--3--1--1--------1----|
--3-----1-------------|----------------------|----------------------|
----------------------|----------------------|----------------------|
----------------------|----------------------|----------------------|
----------------------|----------------------|----------------------|
----------------------|----------------------|----------------------|


--1-----3--------1----|--1--0--0-------------|
-----3----------------|----------------------|
----------------------|-----------------0----|
----------------------|----------------------|
----------------------|----------------------|
----------------------|----------------------|


----------------------------------------|
--1--------1--1-----------------3-------|
----------------------------------------|
----------------------------------------|
----------------------------------------|
----------------------------------------|


--0--------0--0-----------------0-------|-----0--1-------------|----------||
----------------------------------------|--3-----------0-------|--3--1----||
----------------------------------------|----------------------|----------||
----------------------------------------|----------------------|----------||
----------------------------------------|----------------------|----------||
----------------------------------------|----------------------|----------||

Facebook kommentarer

Taktart

3/4

Genre

Julesange

Komponist

Tysk julemelodi

Spillestil

Melodispil

Toneart

C

Forfatter

Fridrikur