Blues riff i E dur

Du er her

Samme riff som "blues riff i A dur", og samme metode og stil, men bemærk den svære akkord i 7. bånd, der skal du skille fingrene en anelse fra hinanden, men med lidt øvelse... Et typisk Status Que Rock Riff. Hvis du spiller det på en elektrisk guitar

E||--------------------------|--------------------------|
B||--------------------------|--------------------------|
G||--------------------------|--------------------------|
D||--------------------------|--------------------------|
A||--2--2--4--4--5--5--4--4--|--2--2--4--4--5--5--4--4--|
E||--0--0--0--0--0--0--0--0--|--0--0--0--0--0--0--0--0--|

A5
--------------------------|--------------------------|
--------------------------|--------------------------|
--------------------------|--------------------------|
--2--2--4--4--5--5--4--4--|--2--2--4--4--5--5--4--4--|
--0--0--0--0--0--0--0--0--|--0--0--0--0--0--0--0--0--|
--------------------------|--------------------------|

E5 B5
--------------------------|--------------------------------|
--------------------------|--------------------------------|
--------------------------|--------------------------------|
--------------------------|--------------------------------|
--2--2--4--4--5--5--4--4--|--9--9--11--11--12--12--11--11--|
--0--0--0--0--0--0--0--0--|--7--7--7---7---7---7---7---7---|

B5
--------------------------------|-------------------||
--------------------------------|-------------------||
--------------------------------|-------------------||
--------------------------------|-------------------||
--9--9--11--11--12--12--11--11--|-------------------||
--7--7--7---7---7---7---7---7---|--0----------------||

Spilletips

Pas på at respektere første slaget i takten og læg lidt vægt på det. Ellers kan det bedst betale sig at lytte til gamle bluesindspilninger eller gasolin plader, fekst. "rabalder stræde" eller Shu Bi Duas "Folk med store vandmeloner"

Spillestil

Strum med tommel eller plekter

Genre

Blues guitar øvelser