Boogie Woogie i A-dur øvet

Du er her

Nøjagtig det samme som tilsvarende riff i A dur for begyndere, men blot shinet lidt op. Kadancen er den samme

E||----------------------------|---------------------------|
B||----------------------------|---------------------------|
G||*---------------------------|---------------------------|
D||*---------------------------|---------------------------|
A||----------2--4--5--4--2-----|---------2--4--5--4--2-----|
E||---0-0-4-----------------4--|--0-0-4-----------------4--|

---------------------------|---------------------------|
---------------------------|---------------------------|
---------------------------|---------------------------|
---------2--4--5--4--2-----|---------2--4--5--4--2-----|
--0-0-4-----------------4--|--0-0-4-----------------4--|
---------------------------|---------------------------|

--------------------------|-----------------------------||--------------------|
--------------------------|-----------------------------||--------------------|
--------2-----------2-----|----------------------------*||-----------1--------|
-----1-----1-----1--------|----------------------------*||-----------2--------|
--2-----------2--------2--|-----------------------------||-----------2--------|
--------------------------|--0--0-0--0-0--0--0-0--0-0---||--0--------0--------|

---||
---||
---||
---||
---||
---||

Spilletips

Som du kan høre så svinger det lidt mere nu. Du skal spille lidt hurtigere på de første anslag i takterne, men forholdsvist roligt i højre hånd, stadigvæk, og husk at pulsen er i bassens første og 3 slag, dsv. 1-2-3-4 med x som accent: 1x-2-3x-4, men tænk ikke for meget over det, og lyt i stedet.

Spillestil

Fingerspils spillestilen

Akkorder

E E A A B7 E

Genre

Riff øvelser