Country akkompagnement

Du er her

Denne anslagsøvelse viser, at der tit i folke, blues og countrymusik, forventes at man gør andet end blot strummer. Det er også meget normalt at spiller bastonerne til akkorden. Denne øvelse viser hvordan man lægger op til en ny akkord ved at spille nogle bastoner der bare skriger på akkorden. Hør selv. Filmklippet viser både hvordan man spiller øvelsen i venstre og i højre hånd.

A7 D
E||----------------------|----------------------|------------2----2----|
B||-------2----2---------|--2----2--------------|------------3----3----|
G||-------0----0---------|--0----0--------------|------------2----2----|
D||-------2----2---------|--2----2--------------|-------0--------------|
A||--0--------------0----|------------0----2----|--4-------------------|
E||----------------------|----------------------|----------------------|

G
-------2--------------|------------3----3----|----------------------|
-------3--------------|------------0----0----|----------------------|
-------2--------------|-------0----0----0----|--0-------------------|
--0---------0----2----|--4-------------------|-------4----2----0----|
----------------------|----------------------|----------------------|
----------------------|----------------------|----------------------|

D A7
--2----2--------------|----------------------|----------------------|
--3----3--------------|------------2----2----|----------------------|
--2----2--------------|------------0----0----|----------------------|
------------0---------|------------2----2----|-----------------0----|
-----------------4----|--2----0--------------|--0----2----4---------|
----------------------|----------------------|----------------------|

D A7 D
--2----2--------------|----------------------|--2----------------||
--3----3--------------|--2----2--------------|--3----------------||
--2----2--------------|--0----0--------------|--2----------------||
----------------------|--2----2----4----2----|--0----------------||
------------0----0----|----------------------|-------------------||
----------------------|----------------------|-------------------||

Spilletips

Kan spilles med plekter eller med tommelfinger og pegefinger.

Spillestil

Strum med tommel eller plekter

Genre

Strum akkorder