David Hidalgo riff

Du er her

Guitaristen i Los Lobos spiller dette iørefaldende riff.

E||--------------------------|-------------------------|-------1--1----3------|
B||--1--X--X--X--X--x--------|-------------------------|--1----1--1----0------|
G||--------0-----2-----------|-------------------------|--0----2--2----0------|
D||-----2-----3--------------|-----0--3--3--2--0-------|--2----3--3----0------|
A||--3-----------------------|--2-----------------3----|--3------------2------|
E||--------------------3--3--|-------------------------|---------------3------|

------------------||
------------------||
------------------||
------------------||
------------------||
------------------||

Spilletips

Grib en c akkord og pluk nogle toner ud med tommelfingeren - skift så hurtigt over til G og spil hurtigt på bastonerne.
Kender du riffet? Davis Hidalgo riff (prøv og gæt sangen) X = 1 bliver hvor den er 

Genre

Riff øvelser