vekselbas- øvelse 4

Du er her

Bas og strum Stadig diskantstrenge med pegefinger!

E||-----------------------|--3-------------------|-------3--------------|
B||-----------------------|--0-------------------|-------0--------------|
G||*----------------------|--0-------------------|-------0--------------|
D||*----------------------|----------------------|----------------------|
A||--------2---------2----|------------2---------|--2--------------2----|
E||---3---------3---------|-------3---------3----|------------3---------|

G 2x
------------3---------||
------------0---------||
------------0--------*||
---------------------*||
-------2--------------||
--3-------------------||

Spilletips

Tag en G akkord og brug den hele vejen

Spillestil

Fingerspils spillestilen

Genre

Fingerpicking øvelser