vekselbas- øvelse 5

Du er her

Bas og akkord med skift Husk stadig diskantstrenge med pegefinger! Øvelse 5 Bas og akkord med skift Stadig diskantstrenge med pegefinger!

   G                      G                           G7              
E||-----------------------|--3-------------------|-------1--------------|
B||-----------------------|--0-------------------|-------0--------------|
G||*----------------------|--0-------------------|-------0--------------|
D||*----------------------|----------------------|----------------------|
A||--------2---------2----|------------2---------|--2--------------2----|
E||---3---------3---------|-------3---------3----|------------3---------|


            G         2x
------------3---------||
------------0---------||
------------0--------*||
---------------------*||
-------2--------------||
--3-------------------||

Spilletips

Spil fingerspillet som angivet, og skift imellem G og G7. Tip: Der hvor du spiller på 1. bånd på den tynde E streng griber du en G7 akkord.

Spillestil

Fingerspils spillestilen

Genre

Fingerpicking øvelser