vekselbas- øvelse 9

Du er her

Guitar øvelse med skift imellem bastoner med tommelfinger som vi kalder vekselbas. Desuden også med diskant-toner på 1.slag i hver takt.

E||---0-------------------|--0--------------------||---1-------------------|
B||-----------------------|-----------------------||-----------------------|
G||*----------------------|----------------------*||*----------------------|
D||*-------2---------2----|-------2---------2----*||*----------------------|
A||---3---------3---------|--3---------3----------||--------2---------2----|
E||-----------------------|-----------------------||---3---------3---------|

--1--------------------||--0-------------------|--0-----------------||
-----------------------||----------------------|--------------------||
----------------------*||----------------------|--------------------||
----------------------*||-------2---------2----|-------2------------||
-------2---------2-----||--3---------3---------|--3---------3-------||
--3---------3----------||----------------------|--------------------||

Spillestil

Fingerspils spillestilen

Akkorder

C C G7 G7 C C

Genre

Fingerpicking øvelser