Vekselbas-monotonbas øvelse 11 Finale - Mary Had A Little Lamb

Du er her

Her følger en monoton og vekselbas øvelse med "Mary Had A Little Lamb" kørende i melodien på diskantstrengene. Bassen starter med monoton og går senere over i vekselbas. En vigtig øvelse i brug af begge basformer

E||---0-------------------|--0----0----0--------|---------------------|
B||--------3----1----3----|---------------------|--3----3----3--------|
G||*----------------------|---------------------|---------------------|
D||*----------------------|---------------------|---------------------|
A||---3---------3---------|--3---------3--------|---------------------|
E||-----------------------|---------------------|--3---------3--------|

--0----3----3--------|--0-------------------|--0----0----0--------|
---------------------|-------3----1----3----|---------------------|
---------------------|----------------------|---------------------|
---------------------|----------------------|---------------------|
--3---------3--------|--3---------3---------|--3---------3--------|
---------------------|----------------------|---------------------|

------------0---------|-----------------------||----------------------|
--3----3---------3----|--1--------------------||--1-------------------|
----------------------|----------------------*||----------------------|
----------------------|-------2--------------*||----------------------|
------------3---------|--3--------------0-----||--3----0----2----3----|
--3-------------------|------------3----------||----------------------|

--------------------|----------||
-----------1--------|----------||
-----------0--------|----------||
-----------2--------|----------||
--0--------3--------|----------||
--------------------|----------||

Spilletips

Koncentrer dig om skift med tommelfinger og spil rytmisk korrekt, og ej for hurtigt, pas på med at løbe. Lad melodien komme til syne i diskanten. Når du kan spille denne melodi ubesværet, så kan du være stolt for så har du lært at spille tommel og fingre sammen uden at skulle tænke på deres rolle hver for sig.

Spillestil

Fingerspils spillestilen

Genre

Fingerpicking øvelser