Reel Sherbrooke

Du er her

Anonym fransk/canadisk violin sang. Lyder spændende og anderledes på guitaren, og er god til at strumme til. Kan gentages efter behag, og er god til at få folk til at danse. Den er placeret i vores bluegrass sektion, da den fint fungerer som en bluegrass sang på guitaren. Reel Sherbrooke er en fra/can. folkesang

Sådan spiller du: Reel Sherbrooke

Du spiller med plekter. Kør skiftevis op og ned på 1/8 tonerne, og kun ned på 1/4 tonerne. Spilles som plekter stykke. Med up og down picking.

Tabulatur(tabs)

 |       |        |       |        |       |        |       |        
|----------------|----------------|3---2-0---------|----------------|
|----------------|----------------|--------3-1-0---|--0-----0-------|
|----------------|----------------|--------------2-|0-----0-----2-0-|
|----------------|----------------|----------------|----0-----------|
|----------------|----------------|----------------|----------------|
|----------------|----------------|----------------|----------------|

 |       |        |       |        |       |        |       |        
|----------------|----------------|3---2-0---------|--------------15|
|------0-1---0---|----0-1-3-------|--------3-1-0---|--0-----0-------|
|--0-2---------2-|0-2-------------|--------------2-|0-----0-----2-0-|
|4---------------|----------------|----------------|----0-----------|
|----------------|----------------|----------------|----------------|
|----------------|----------------|----------------|----------------|

 |       |        |       |        |       |        |       |        
|------------0-2-|3---3---3-------|3---2-0---------|----------------|
|------0-1-3-----|----------------|--------3-1-0---|--0-----0-------|
|--0-2-----------|----------------|--------------2-|0-----0-----2-0-|
|4---------------|----------------|----------------|----0-----------|
|----------------|----------------|----------------|----------------|
|----------------|----------------|----------------|----------------|

 |       |        |       |        |       |        |       |        
|----------------|----------------|3---2-0---------|----------------|
|------0-1---0---|----0-1-3-------|--------3-1-0---|--0-----0-------|
|--0-2---------2-|0-2-------------|--------------2-|0-----0-----2-0-|
|4---------------|----------------|----------------|----0-----------|
|----------------|----------------|----------------|----------------|
|----------------|----------------|----------------|----------------|

 |       |        |       |        |       |        |       |        
|------------0-2-|3---3---3-------|----------------|2-----2-5---5-7-|
|------0-1-3-----|----------------|--------3-----3-|----3-----------|
|--0-2-----------|----------------|2-----2-----2---|----------------|
|4---------------|----------------|----4-----------|----------------|
|----------------|----------------|----------------|----------------|
|----------------|----------------|----------------|----------------|

 |       |        |       |        |       |        |       |        
|5---3---0-------|7---5---2-------|----------------|2-----2-5---5-7-|
|------------2---|------------3---|--------3-----3-|----3-----------|
|----------------|----------------|2-----2-----2---|----------------|
|----------------|----------------|----4-----------|----------------|
|----------------|----------------|----------------|----------------|
|----------------|----------------|----------------|----------------|

 |       |        |       |        |       |        |       |        
|5---3---0-------|--0-------------|----------------|2-----2-5---5-7-|
|------------2---|3---3-2-3-------|--------3-----3-|----3-----------|
|----------------|----------------|2-----2-----2---|----------------|
|----------------|----------------|----4-----------|----------------|
|----------------|----------------|----------------|----------------|
|----------------|----------------|----------------|----------------|

 |       |        |       |        |       |        |       |        
|5---3---0-------|7---5---2-------|----------------|2-----2-5---5-7-|
|------------2---|------------3---|--------3-----3-|----3-----------|
|----------------|----------------|2-----2-----2---|----------------|
|----------------|----------------|----4-----------|----------------|
|----------------|----------------|----------------|----------------|
|----------------|----------------|----------------|----------------|

 |       |        |       |        |       |        |       |        
|5---3---0-------|--0---------0-2-|3---2-0---------|----------------|
|------------2---|3---3-2-3-------|--------3-1-0---|--0-----0-------|
|----------------|----------------|--------------2-|0-----0-----2-0-|
|----------------|----------------|----------------|----0-----------|
|----------------|----------------|----------------|----------------|
|----------------|----------------|----------------|----------------|

 |       |        |       |        |       |        |       |        
|----------------|----------------|3---2-0---------|----------------|
|------0-1---0---|----0-1-3-------|--------3-1-0---|--0-----0-------|
|--0-2---------2-|0-2-------------|--------------2-|0-----0-----2-0-|
|4---------------|----------------|----------------|----0-----------|
|----------------|----------------|----------------|----------------|
|----------------|----------------|----------------|----------------|

 |       |        |       |        |       |        
|------------0-2-|3---3---3-------|----------------|
|------0-1-3-----|----------------|----------------|
|--0-2-----------|----------------|----------------|
|4---------------|----------------|----------------|
|----------------|----------------|----------------|
|----------------|----------------|----------------|

Facebook kommentarer

Genre

Flatpicking

Spillestil

Flatpicking

Midi

mp3

Forfatter

Fridrikur