Søren Banjomus

Du er her

Om guitarlektionen: Søren Banjomus

Genial dansk melodi. Melodi og tekst skrevet af Otto Brandenburg, som jo selv elsker swing og jazz og det bærer melodien også præg af.
Denne udgave er med melodien som enkeltstemmer skrevet som tablature (tabs). Leder du istedet efter akkorderne til sangen? Find dem i vores oversigt.

Sådan spiller du: Søren Banjomus

Bassen (på 6. streng) kan nemt udelades - påvirker ikke melodien synderligt

Tabulatur(tabs)

E||------------------|------------------|--------------------|
B||------------------|------------------|------------------1-|
G||------------------|------------------|--------------2-----|
D||------------------|------------------|--------------------|
A||------------------|------------------|--------------------|
E||------------------|------------------|--------------------|


                                                                               
-------------------------|------------------------|---------------------------|
-------1----1----------3-|------3-----3----2---1--|------1----1-------------3-|
-----------------2---3---|------------------------|------------------2----3---|
-------------------------|------------------------|---------------------------|
-------------------------|------------------------|---------------------------|
-------------------------|----------1-------------|-------------1-------------|


                                                                       
---------------------|------------------------|-----------------------|
--------------3----1-|--------1-------------3-|-------3----3----4-----|
-------------------2-|----------------2-------|-----------------------|
---------------------|------------------------|-----------------------|
---------------------|------------------------|-----------------------|
---------------------|-----------1------------|-----------------------|


                                                     
----0----3---0---------------|----------------------|
---------------------3----1--|-----------------1----|
-----------------------------|----------------------|
-----------------------------|----------------------|
-----------------------------|----------------------|
---------------3-------------|----------------------|


                                                         
---------------------------|------0------0--------------|
------3----3---3--------1--|-----------------------4----|
--------------------3------|----------------------------|
---------------------------|----------------------------|
---------------------------|----------------------------|
---------------------------|------------------3---------|


                                                            
--------------------------------|------0-------------------|
----3----------3------3---------|--------------------------|
-------3-----3-------------3----|------0--------------3----|
--------------------------------|--------------------------|
--------------------------------|--------------------------|
--------------------3-----------|----------------3---------|


                                                                                
-----------------------|------0-------1--0---------|---------------------------|
----3----3----3--------|-------------------------3-|------1--------3---1----3--|
-------------------3---|---------------------------|---------------------------|
-----------------------|---------------------------|---------------------------|
-----------------------|---------------------------|---------------------------|
-----------------------|-------------------3-------|-----------------3---------|


                                                            
-------------------------|------------------1------1-----1-|
-------1---------------1-|---------1-----------------------|
-------------------------|---------2------2------2-----2---|
-------------------------|---------------------------------|
-------------------------|---------------------------------|
------------------3------|---------------------------------|


                                                        
--------1------------------|---------------------------|
--------------1----------4-|---------4------3----3-----|
--------------2-----2------|---------------------------|
--------2-----------7------|---------------------------|
---------------------------|---------------------------|
---------------------------|---------------------------|


                                                          
--------------------------|------------3--------3----3---|
---2-------3--------------|---3------0--------0----------|
--------------------------|------------------------------|
--------------------------|------------------------------|
--------------------------|------------------------------|
--------------------------|------------------------1-----|


                                                          
-----3-----3----------------|----1-------3-----1----0----|
---0-------------3----0-----|----------------------------|
----------------------------|----------------------------|
----------------------------|----------------------------|
----------------------------|----------------------------|
----------------------1-----|----------------------------|


                                                      
-------------------------|---------------------------|
----3--------1-----------|-------------1----1----1---|
-------------------------|----2------3---------------|
-------------------------|---------------------------|
-------------------------|---------------------------|
-------------------------|---------------------------|


                                                       
---------------------------|--------------------------|
--------------3---3-----3--|----2-------1-----1-------|
-----2------3--------------|-----------------------0--|
---------------------------|--------------------------|
---------------------------|--------------------------|
---------------------------|-----------------------1--|


                                                     
--------------0----------|--------------------------|
-------------------------|-------4-----3------2-----|
-------2-----------------|-----------------------2--|
-------------------------|--------------------------|
-------------------------|--------------------------|
-------------------------|-----------------------1--|


                                                          
----------------0-------------|----------------1---------|
-------4------1-------0----3--|-------1------------------|
----------------------5-------|--------------2-----------|
------------------------------|--------------------------|
------------------------------|--------------------------|
----------------3-------------|--------------------------|


                                                            
---------------------------|--------------------------0----|
----------------1-----1----|----1--------------3-----------|
--------------3------------|-----------2---3---------------|
---------------------------|-------------------------------|
---------------------------|-------------------------------|
----1----------------------|------1------------------------|


                                                         
----------------------------|---------------------------|
---3------------1-----1-----|---1-------------3---------|
---2----------3-------------|--------2------3-----------|
----------------------------|---------------------------|
----------------------------|---------------------------|
----------------------------|---------------------------|


                                                         
---------------------------|----------------------------|
-------------1---------1---|-----1-----------3------3---|
---------------2-----------|----------2-----------------|
---------------------------|----------------------------|
---------------------------|----------------------------|
---------------------------|----------------------------|


                                                          
------------------0----------|---3--0--------------------|
------3----4-----------------|------------3-------1------|
-----------------------------|---------------------------|
-----------------------------|---------------------------|
-----------------------------|---------------------------|
----1---------------3--------|---------------------------|


                                                        
---------------------------|------------------0------1-|
------------------3------3-|------3--------------------|
----------------3----------|-----------3---------------|
---------------------------|---------------------------|
---------------------------|---------------------------|
---------------------------|---------------------------|


                                                         
-------0-------------------|---------------------0------|
------------------1--------|---3----3----------1--------|
--------------------3------|-------------3--------------|
--------------------7------|----------------------------|
---------------------------|----------------------------|
---------------------------|----------------------------|


                                                                                
------------------------|----------------------0----|------1-0-----------------|
---------------1-3------|---3----3------------------|--------------3-----1-----|
------------------------|---------------3-----------|--------------------------|
------------------------|---------------------------|--------------------------|
------------------------|---------------------------|--------------------------|
------------------------|----------3----------------|--------------------------|


                                                         
----------------------------|---------------------1-----|
-----3----1----3------1-----|---------------1-----------|
----------------------------|---------------------2-----|
----------------------------|---------------------------|
----------------------------|---------------------------|
--------1-------------------|----------3----------------|


                                                             
------------------1----1-------|----------------------------|
-----1----1--------------------|----1-----3-----4-----------|
-----2----2-----2---------2----|---------------------3------|
-------------------------------|----------------------------|
-------------------------------|----------------------------|
-------------------------------|---------------------1------|


                                                         
-----------------------------|-------------------3------|
------3---3----2--------3----|-----------------------3--|
----3-----3-----------3------|-------------3------------|
-----------------------------|-------------7------------|
-----------------------------|--------------------------|
-----------------------------|--------------------------|


                                                          
-----------3----------3----|----------0-------1----0-----|
-------3---3-----3---------|-----3-----------------------|
-------7---------7----2----|-----------------------------|
---------------------------|-----------------------------|
---------------------------|-----------------------------|
---------1-----------------|----------1------------3-----|


                                                        
-----0----1------2----3------|-------------------------|
-----------------------------|---------------------1---|
-----------------------------|-------------------2-----|
-----------------------------|-------------------------|
-----------------------------|-------------------------|
------------------------3----|-------------------------|


                                                       
----------------------------|-------0-----------------|
------1---1------------3----|----------3------------1-|
-----------------2---3------|---------------------2---|
----------------------------|---------------------3---|
----------------------------|-------------------------|
------------1---------------|------------1------------|


                                                   
----------------------0--|------------------------|
-------1---1-------------|---------------------3--|
-----------------2-------|------------------------|
-------------------------|------------------------|
-------------------------|------------------------|
-----------1-------------|------------------------|


                                                        
--------------------------0--|-------------------------|
---------2----3------4-------|------------1----------1-|
-----------------------------|-----------------------2-|
-----------------------------|-------------------------|
-----------------------------|-------------------------|
------------1-------------3--|-------------------------|


                                                                              
-------------------------|----------------------8----|----13-----------------|
-------------1----0--1---|----2------1---------------|-----------------------|
-------------------------|---------------------------|-----------------------|
-------------------------|---------------------------|-----------------------|
-------------------------|---------------------------|-----------------------|
-------------1-----------|---------------------------|-----------------------|


                                                                           
---------------------|-----------------------|----------------------------|
---------------------|-----------------------|-----1------1------1--------|
---------------------|-------------------2---|------------------------2---|
---------------------|-----------------------|----------------------------|
---------------------|-----------------------|----------------------------|
---------------------|-----------------------|-------------------1--------|


                                                          
-----------------------------|---------------------------|
-----3-------3-----3----2----|----1-----1----------------|
---3-------------------------|----------------------2----|
-----------------------------|---------------------------|
-----------------------------|---------------------------|
---------3-------------------|-----------------1---------|


                                                       
------------------------|-----------------------------|
-----3--------------3---|------1--------1------1------|
---3--------------------|---------------------------2-|
------------------------|-----------------------------|
------------------------|-----------------------------|
------------------------|--------------------1--------|


                                                          
-------------------------|---------0----3-------0--------|
-----3------3----3----4--|----------------------------3--|
-------------------------|-------------------------------|
-------------------------|-------------------------------|
-------------------------|-------------------------------|
-------------------------|-----3-------------------------|


                                                           
-----------------------------|----------------------------|
---------1----------------1--|-------3------3------3------|
-----------------------------|-----3--------------------3-|
-----------------------------|----------------------------|
-------1---------------------|----------------------------|
-----------------------------|----------------------------|


                                                         
---------0------0-----------|---------------------------|
------1--------------0----4-|--------3-----3------------|
----------------------------|---------------------------|
----------------------------|---------------------------|
----------------------------|---------------------------|
---------------------3------|---------------------3-----|


                                                            
----------0-----------------|------------------------------|
----------------------------|---------1-3------3-----------|
----3-----------------------|-----3-------------------2----|
----------------------------|------------------------------|
----------------------------|------------------------------|
------------------------3---|-------------------------3----|


                                                           
----------0----------1---0----|---------------------------|
------------------------------|-----3----1--------3--1----|
----3-------------------------|---------------------------|
------------------------------|---------------------------|
------------------------------|---------------------------|
-----------------------3------|------------3--------------|


                                                      
-----------------------|-----------1-------1------1--|
----3-----1------------|-----1-----------------------|
-----------------------|-----------2----2-------2----|
-----------------------|-----------------------------|
-----------------------|-----------------------------|
-----------------------|-----------------------------|


                                                         
------------1---------------|---------------------------|
-------1-----------1----3---|------4-----------3----3---|
-------2------2-------------|-----------3---------------|
----------------------------|---------------------------|
----------------------------|---------------------------|
----------------------------|-----------1---------------|


                                                       
--------------------------|-------------3-------------|
-----2---3----------------|------3----0---------3-----|
-----------3--------------|---------------------4-----|
--------------------------|---------------------------|
--------------------------|---------------------------|
--------------------------|-----------------------1---|


                                                            
------3-----3-----------0---|------1------3---------1---0--|
----0-----0--------3--------|------------------------------|
----------------------------|------------------------------|
----------------------------|------------------------------|
----------------------------|------------------------------|
------------------------1---|-----------3------------------|


                                                        
------------------------|------------------------------|
------3-----1-----------|-------------1-------1---1----|
------------------------|-------2---3------------------|
------------------------|------------------------------|
------------------------|------------------------------|
------------------------|---------------------------1--|


                                                                               
--------------------------|---------------------------|-----------0-----------|
------------3------3----3-|-------2----1------1----1--|-----------------------|
------2---3---------------|---------------------------|------2----------------|
--------------------------|---------------------------|-----------------------|
--------------------------|---------------------------|-----------------------|
--------------------------|---------------------------|-----------------------|


                                                          
-----------------------------|-----------0------0--------|
--------4---3--------2----3--|------4--------------------|
-----------------------------|------------------------2--|
-----------------------------|---------------------------|
-----------------------------|---------------------------|
------------------------1----|------------------------3--|


                                                       
-----------1------------|-----------------------------|
------1-----------------|------------1--------1---1---|
-----------2------------|--------2-3------------------|
------------------------|-----------------------------|
------------------------|-----------------------------|
---------------------1--|---------------------------1-|


                                                                             
--------------------0------|------------------------|-----------------------|
------------3------------3-|----------1-------1---1-|------------3----------|
--------2-3----------------|------------------------|-------2-3-------------|
---------------------------|------------------------|-----------------------|
---------------------------|------------------------|-----------------------|
---------------------------|------------------------|-----------------------|


                                                                 
-------------------------------|--------------------------------|
--------------1--------1----1--|--------------1-3-------3----3--|
----------2-3------------------|-------2------------------------|
-------------------------------|--------------------------------|
-------------------------------|--------------------------------|
-------------------------------|------------1-------------------|


                                                        
-------------0----------3----|-------------------------|
-------4------------------0--|-------3-----1-----------|
-----------------------------|-------------------------|
-----------------------------|-------------------------|
-----------------------------|-------------------------|
--------------------------3--|-------------------------|


                                                         
--------------------------|----------------0-------1----|
---------------3------3---|-----------------------------|
-----------3--------------|----2----3-------------------|
--------------------------|-----------------------------|
--------------------------|-----------------------------|
--------------------------|----3------------------------|


                                                      
--------------------------|-----------------0--------|
----0-------1--3-------3--|----3-------1-------------|
--------------------------|---------3----------------|
--------------------------|--------------------------|
--------------------------|--------------------------|
----3---------------------|--------------------------|


                                                           
-----------------------------|---------------------0------|
------------------1-3-----3--|-----3----------------------|
--------------3--------------|------------3---------------|
-----------------------------|----------------------------|
-----------------------------|----------------------------|
------3----------------------|-------3-----------3--------|


                                                           
-----1-0------------------|-------------------------------|
-------------3-----1------|-----3----1----3-------1-------|
--------------------------|-------------------------------|
--------------------------|-------------------------------|
--------------------------|-------------------------------|
--------------------------|--------1----------------------|


                                                     
---------------------1---|---1-----1----1----1------|
-----------1-------------|--------------------------|
---------------------2---|-----2---------------2----|
-------------------------|--------------2-----------|
-------------------------|--------------------------|
-------------------------|--------------------------|


                                                          
---------------------------|-----------------------------|
---1-----3----4-----4------|------3---3----2--------3----|
---------------------------|----3-----------------3------|
---------------------------|----------3------------------|
---------------------------|-----------------------------|
--------------------1------|-----------------------------|


                                                       
-------------------3---|---------3--------3--------3--|
------------3------0---|-------0--------0--------0----|
-----------------------|------------------------------|
-----------------------|------------------------------|
-----------------------|------------------------------|
-----------------------|-----------1------------------|


                                                             
-----------0-----1---------0--|------0----1-------2-----3---|
------3-----------------------|-----------------------------|
------------------------------|-----------------------------|
------------------------------|-----------------------------|
------------------------------|-----------------------------|
---------------------------1--|-------------3---------------|


                                                         
--------------------------|-----------------------------|
---------------------1----|-------1----1------------3---|
-------------------2------|-------2---------2-----------|
--------------------------|-----------------------------|
--------------------------|-----------------------------|
----------3---------------|-----------------------------|


                                                                              
------0----------------|--------------------------0-|------------------------|
-----------3-----------|----------------------------|------------------------|
--------------------3--|--------5---5-------2-------|------------------------|
--------------------7--|----------------------------|------------------------|
--------------------6--|----------------------------|------------------------|
-----------------------|--------------1-------------|------------------------|


                                                         
-----------------------------|------0-------------------|
-----3-----2----3-------4----|---------------1----------|
-----------------------------|--------------------------|
-----------------------------|--------------------------|
-----------------------------|--------------------------|
--------------1--------------|---3----------------------|


                                                         
--------1--------------------|--------------------8-----|
----------------1--0-----1---|------2----1--------------|
--------2--------------------|--------------------------|
-----------------------------|--------------------------|
-----------------------------|--------------------------|
------1----------------------|--------------------------|


                                                                          
----13------------------|---------------------|------1-------------------|
------------------------|---------------------|--------------------------|
------------------------|---------------------|--------------------------|
------------------------|---------------------|--------------------------|
------------------------|---------------------|--------------------------|
------------------------|---------------------|-----------------1--------|


                                                             
---------------------------------|------------8----13-------|
-------1-----0--1---2-------1----|--------------------------|
---2-3---------------------------|--------------------------|
---------------------------------|--------------------------|
---------------------------------|--------------------------|
---------------------------------|----1---------------------|


                                         
--------------------|------------------||
--------------------|------------------||
--------------------|------------------||
--------------------|------------------||
--------------------|------------------||
--------------------|------------------||

Facebook kommentarer

Genre

Julesange

Forfatter