Sailing To Philadelphia Fingerstyle

Du er her

Om guitarlektionen: Sailing To Philadelphia Fingerstyle

Her får du fingerspil akkompagnementet til Sailing To Philadelphia af og med Mark Knopfler. Sangen er i tonearten F#m men her får du den i Em. Du kan dog nemt sætte en Capo på 2. bånd og dermed spiller du i F#m.

Sådan spiller du: Sailing To Philadelphia Fingerstyle

I højre hånd spiller du med tommel på 6,3, og 4. streng ved Em og G, og ved A(m) samt C spiller du med tommel på 5, 3, og 4. streng, og ved D spiller du med tommel på 4, 3, og 5. streng. Derimellem fletter du ved hver akkord pegefinger på: 2. streng og langfinger på 1. streng.
I Em ser det sådan ud: (6)tommel,(2)pege,(3)tommel,(1)langfinger,(4)tommel,(2)pege,(1)langfinger.

Del Sailing To Philadelphia Fingerstyle lektionen på de sociale medier

Pdf

It appears your Web browser is not configured to display PDF files. Download adobe Acrobat eller klik her for at downloade PDF-filen.

Tabulatur(tabs)

E |-----------0-----------0----||----------0-----------0----|
B |-----0-----------0----------||----0-----------0----------|
G |--------0-----------0-------||o------0-----------0-------|
D |--------------0-------------||o------------2-------------|
A |----------------------------||---------------------------|
E |--0-------------------------||-0-------------------------|

-----------0-----------0----|-----------0-----------0----|
-----0-----------0----------|-----0-----------0----------|
--------0-----------0-------|--------0-----------0-------|
--------------2-------------|--------------2-------------|
----------------------------|----------------------------|
--0-------------------------|--0-------------------------|

-----------2-----------2----|-----------2-----------2----|
-----3-----------3----------|-----3-----------3----------|
--------2-----------2-------|--------2-----------2-------|
--0-----------0-------------|--0-----------0-------------|
----------------------------|----------------------------|
----------------------------|----------------------------|

-----------3-----------3----|-----------3-----------3----|
-----0-----------0----------|-----0-----------0----------|
--------0-----------0-------|--------0-----------0-------|
--------------0-------------|--------------0-------------|
----------------------------|----------------------------|
--3-------------------------|--3-------------------------|

-----------0-----------0----|-----------0-----------0----|
-----1-----------1----------|-----1-----------1----------|
--------0-----------0-------|--------0-----------0-------|
--------------2-------------|--------------2-------------|
--3-------------------------|--3-------------------------|
----------------------------|----------------------------|

-----------2-----------2----|-----------2-----------2----|
-----3-----------3----------|-----3-----------3----------|
--------2-----------2-------|--------2-----------2-------|
--0-----------0-------------|--0-----------0-------------|
----------------------------|----------------------------|
----------------------------|----------------------------|

-----------3-----------3----|-----------0-----------0----|
-----0-----------0----------|-----1-----------1----------|
--------0-----------0-------|--------0-----------0-------|
--------------0-------------|--------------2-------------|
----------------------------|--3-------------------------|
--3-------------------------|----------------------------|

-----------2-----------2----|-----------2-----------2----|
-----3-----------3----------|-----3-----------3----------|
--------2-----------2-------|--------2-----------2-------|
--0-----------0-------------|--0-----------0-------------|
----------------------------|----------------------------|
----------------------------|----------------------------|

-----------3-----------3----|-----------0-----------0----|
-----0-----------0----------|-----1-----------1----------|
--------0-----------0-------|--------0-----------0-------|
--------------0-------------|--------------2-------------|
----------------------------|--3-------------------------|
--3-------------------------|----------------------------|

-----------0-----------0----|-----------0-----------0----|
-----0-----------0----------|-----0-----------0----------|
--------0-----------0-------|--------0-----------0-------|
--------------2-------------|--------------2-------------|
----------------------------|----------------------------|
--0-------------------------|--0-------------------------|

-----------2-----------2----|-----------2-----------2---||
-----3-----------3----------|-----3-----------3---------||
--------2-----------2-------|--------2-----------2-----o||
--0-----------0-------------|--0-----------0-----------o||
----------------------------|---------------------------||
----------------------------|---------------------------||

-----------2-----------2----|-----------3-----------3----|
-----3-----------3----------|-----0-----------0----------|
--------2-----------2-------|--------0-----------0-------|
--0-----------0-------------|--------------0-------------|
----------------------------|----------------------------|
----------------------------|--3-------------------------|

-----------3-----------3----|-----------2-----------2----|
-----0-----------0----------|-----3-----------3----------|
--------0-----------0-------|--------2-----------2-------|
--------------0-------------|--0-----------0-------------|
----------------------------|----------------------------|
--3-------------------------|----------------------------|

-----------0-----------0----|-----------0-----------0----|
-----0-----------0----------|-----1-----------1----------|
--------0-----------0-------|--------0-----------0-------|
--------------2-------------|--------------2-------------|
----------------------------|--3-------------------------|
--0-------------------------|----------------------------|

-----------0-----------0----|-----------0-----------0----|
-----0-----------0----------|-----0-----------0----------|
--------0-----------0-------|--------0-----------0-------|
--------------2-------------|--------------2-------------|
----------------------------|----------------------------|
--0-------------------------|--0-------------------------|

-----------2-----------2----|-----------2-----------2----|
-----3-----------3----------|-----3-----------3----------|
--------2-----------2-------|--------2-----------2-------|
--0-----------0-------------|--0-----------0-------------|
----------------------------|----------------------------|
----------------------------|----------------------------|

-----------0-----------0----|-----------2-----------2----|
-----1-----------1----------|-----3-----------3----------|
--------0-----------0-------|--------2-----------2-------|
--------------2-------------|--0-----------0-------------|
--3-------------------------|----------------------------|
----------------------------|----------------------------|

-----------0-----------0----|-----------2-----------2----|
-----1-----------1----------|-----3-----------3----------|
--------2-----------2-------|--------2-----------2-------|
--------------2-------------|--0-----------0-------------|
--0-------------------------|----------------------------|
----------------------------|----------------------------|

-----------0-----------0----|-----------2-----------2----|
-----1-----------1----------|-----3-----------3----------|
--------0-----------0-------|--------2-----------2-------|
--------------2-------------|--0-----------0-------------|
--3-------------------------|----------------------------|
----------------------------|----------------------------|

-----------3-----------3----||----------0-----------0----|
-----0-----------0----------||----0-----------0----------|
--------0-----------0-------||o------0-----------0-------|
--------------0-------------||o------------2-------------|
----------------------------||---------------------------|
--3-------------------------||-0-------------------------|

-----------3-----------3----|-----------0-----------0----|
-----0-----------0----------|-----0-----------0----------|
--------0-----------0-------|--------0-----------0-------|
--------------0-------------|--------------2-------------|
----------------------------|----------------------------|
--3-------------------------|--0-------------------------|

-----------2-----------2---|||
-----3-----------3---------|||
--------2-----------2-----o|||
--0-----------0-----------o|||
---------------------------|||
---------------------------|||

Facebook kommentarer

Genre

Fingerpicking/fingerstyle

Spillestil

Fingerpicking

Forfatter