Simple song of Freedom - fingerstyle akkompagnement

Du er her

Om guitarlektionen: Simple song of Freedom - fingerstyle akkompagnement

Bobby Darin skrev denne vidunderlige melodi, som er indenfor folkesanger traditionen. Denne lektion viser et fingerspils/fingerstyle akkompagnement der understøtter sangen.

Sådan spiller du: Simple song of Freedom - fingerstyle akkompagnement

Tag et kig på vores guitarskole der har vi gennemgået dette hurtige og velklingende fingerspil som passer så perfekt til denne dejlige sang. Et godt tip er at øve tommelfinger først. Tommel spiller MEGET vigtigt på 6., 3., 4., og 3. igen i G, G7 og Em, og 4.3.4.3. i D, og i C spiller tommel: 5.3.4.3. Resten af fingerspillet finder du i vores guitarskole, men det er også gennemgået i detaljer i den vedlagte video.

Del Simple song of Freedom - fingerstyle akkompagnement lektionen på de sociale medier

Pdf

It appears your Web browser is not configured to display PDF files. Download adobe Acrobat eller klik her for at downloade PDF-filen.

Video

Tabulatur(tabs)

E |-----------3----------------|-----------2----------------|
B |--0--------------0----------|--3--------------3----------|
G |--------0-----------0-------|--------2-----------2-------|
D |--------------0-------------|--0-------------------------|
A |----------------------------|--------------0-------------|
E |--3-------------------------|----------------------------|

-----------3----------------|-----------1----------------|
--0--------------0----------|--0--------------0----------|
--------0-----------0-------|--------0-----------0-------|
--------------0-------------|--------------0-------------|
----------------------------|----------------------------|
--3-------------------------|--3-------------------------|

-----------0----------------|-----------0----------------|
--1--------------1----------|--1--------------1----------|
--------0-----------0-------|--------0-----------0-------|
--------------2-------------|--------------2-------------|
--3-------------------------|--3-------------------------|
----------------------------|----------------------------|

-----------3----------------|-----------3----------------|
--0--------------0----------|--0--------------0----------|
--------0-----------0-------|--------0-----------0-------|
--------------0-------------|--------------0-------------|
----------------------------|----------------------------|
--3-------------------------|--3-------------------------|

-----------2----------------|-----------2----------------|
--3--------------3----------|--3--------------3----------|
--------2-----------2-------|--------2-----------2-------|
--0-------------------------|--0-------------------------|
--------------0-------------|--------------0-------------|
----------------------------|----------------------------|

-----------0----------------|-----------0----------------|
--0--------------0----------|--0--------------0----------|
--------0-----------0-------|--------0-----------0-------|
--------------2-------------|--------------2-------------|
----------------------------|----------------------------|
--0-------------------------|--0-------------------------|

-----------0----------------|-----------2----------------|
--1--------------1----------|--3--------------3----------|
--------0-----------0-------|--------2-----------2-------|
--------------2-------------|--0-------------------------|
--3-------------------------|--------------0-------------|
----------------------------|----------------------------|

-----------3----------------||
--0--------------0----------||
--------0-----------0-------||
--------------0-------------||
----------------------------||
--3-------------------------||

Facebook kommentarer

Genre

Fingerpicking/fingerstyle

Spillestil

Fingerpicking

Forfatter