Simple song of Freedom - lettere - fingerstyle akkompagnement

Du er her

Om guitarlektionen: Simple song of Freedom - lettere - fingerstyle akkompagnement

Vi har allerede givet dig et fingerspil til Simple song of freedom. Her er en forenklet udgave af det samme fingerspil.

Pdf

It appears your Web browser is not configured to display PDF files. Download adobe Acrobat eller klik her for at downloade PDF-filen.

Sådan spiller du: Simple song of Freedom - lettere - fingerstyle akkompagnement

Læg mærke til at du nu kun spiller en tone i starten modsat to i det oprindelige fingerspil. Tommelfinger spiller de første to toner. I tablaturen hvilke fingre der skal bruges med T, P, og L for fingrene. Vi anbefaler stadig at du øver tommelfingeren for sig. Husk at tommelen har pulsen. Der er 4 slag inden for hver takt. Dvs. 4 anslag med tommelen.

Tabulatur(tabs)

E |-----------3----------------|-----------2----------------| 
B |-----------------0----------|-----------------3----------| 
G |--------0-----------0-------|--------2-----------2-------| 
D |--------------0-------------|--0-------------------------| 
A |----------------------------|--------------0-------------| 
E |--3-------------------------|----------------------------| 

-----------3----------------|-----------1----------------| 
-----------------0----------|-----------------0----------| 
--------0-----------0-------|--------0-----------0-------| 
--------------0-------------|--------------0-------------| 
----------------------------|----------------------------| 
--3-------------------------|--3-------------------------| 

-----------0----------------|-----------0----------------| 
-----------------1----------|-----------------1----------| 
--------0-----------0-------|--------0-----------0-------|
 --------------2-------------|--------------2-------------| 
--3-------------------------|--3-------------------------| 
----------------------------|----------------------------| 

-----------3----------------|-----------3----------------| 
-----------------0----------|-----------------0----------| 
--------0-----------0-------|--------0-----------0-------| 
--------------0-------------|--------------0-------------| 
----------------------------|----------------------------| 
--3-------------------------|--3-------------------------| 

-----------2----------------|-----------2----------------| 
-----------------3----------|-----------------3----------| 
--------2-----------2-------|--------2-----------2-------| 
--0-------------------------|--0-------------------------| 
--------------0-------------|--------------0-------------| 
----------------------------|----------------------------| 

-----------0----------------|-----------0----------------| 
-----------------0----------|-----------------0----------| 
--------0-----------0-------|--------0-----------0-------| 
-------------2-------------|--------------2-------------| 
----------------------------|----------------------------| 
--0-------------------------|--0-------------------------| 

-----------0----------------|-----------2----------------| 
-----------------1----------|-----------------3----------| 
--------0-----------0-------|--------2-----------2-------| 
--------------2-------------|--0-------------------------| 
--3-------------------------|--------------0-------------| 
----------------------------|----------------------------| 

-----------3----------------|| 
-----------------0----------|| 
--------0-----------0-------|| 
--------------0-------------|| 
----------------------------|| 
--3-------------------------||

Facebook kommentarer

Genre

Fingerpicking/fingerstyle

Spillestil

Fingerpicking

Forfatter