Skuld gammel venskab melodi forenklet

Du er her

Her får du Auld Lang syne i en forenklet udgave.

Sådan spiller du: Skuld gammel venskab melodi forenklet

I denne forenklede udgave har vi sparet på positions spillet og spiller så vidt muligt i de første bånd og med løse strenge (åbne strenge). Dog i de høje bånd hvor melodien kræver det.

Pdf

It appears your Web browser is not configured to display PDF files. Download adobe Acrobat eller klik her for at downloade PDF-filen.

Tabulatur(tabs)

E |----------------------------|--2-----0-----------0-------|
B |--------3--------2--3-------|-----------------3----------|
G |--2-------------------------|----------------------------|
D |----------------------------|----------------------------|
A |----------------------------|----------------------------|
E |----------------------------|----------------------------|


--2--0--------------2-------|--5-----7L----7L-7L-7L-7----|
--------3--------3----------|----------------------------|
----------------------------|----------------------------|
----------------------------|----------------------------|
----------------------------|----------------------------|
----------------------------|----------------------------|


--7-----5--------2--2-------|--------0-----------0-------|
----------------------------|--3--------------3----------|
----------------------------|----------------------------|
----------------------------|----------------------------|
----------------------------|----------------------------|
----------------------------|----------------------------|


--2--0----------------------|----------------|--7L-7--5--------2--2-------|
--------3--------0--0-------|-----3L----3----|----------------------------|
----------------------------|--2-------------|----------------------------|
----------------------------|----------------|----------------------------|
----------------------------|----------------|----------------------------|
----------------------------|----------------|----------------------------|


--------0-----------0-------|--7-----5--------2--2-------|
--3--------------3----------|----------------------------|
----------------------------|----------------------------|
----------------------------|----------------------------|
----------------------------|----------------------------|
----------------------------|----------------------------|


--5-----7L----7L-7----------|--10----5--------2--2-------|
----------------------------|----------------------------|
----------------------------|----------------------------|
----------------------------|----------------------------|
----------------------------|----------------------------|
----------------------------|----------------------------|


--------0-----------0-------|--2--0----------------------|----------------|
--3--------------3----------|--------3--------0--0-------|-----3L----3----|
----------------------------|----------------------------|--2-------------|
----------------------------|----------------------------|----------------|
----------------------------|----------------------------|----------------|
----------------------------|----------------------------|----------------|


----------------|----|----||
----------------|----|----||
----------------|----|----||
----------------|----|----||
----------------|----|----||
----------------|----|----||

Facebook kommentarer

Genre

Julesange

Spillestil

Melodispil

Forfatter

Fridrikur