Soldier's joy

Du er her

Soldier's joy er en traditionel bluegrass melodi. Vel nok en af de mest spillede indenfor genren.
Er blevet transkriberet til guitar fra violin. Denne version er beregnet til at blive spillet med plekter (se mere om  plekterspil i vores guitarskole).

Sådan spiller du: Soldier's joy

Jeg anbefaler at du spiller med nedslag på kvart tonerne og skiftevist med ned og opslag op ottendedels tonerne. Med tiden vil du komme til at spille det i et hurtigt tempo, men jeg anbefaler som sædvanlig at du indøver det i et langsomt tempo. Derudover vil jeg også foreslå at du gerne overdriver anslagene i højre hånd med plektret under indøvningen. Så vil du nemmere kunne huske tonerne. Held og lykke med denne sjove melodi!

Pdf

It appears your Web browser is not configured to display PDF files. Download adobe Acrobat eller klik her for at downloade PDF-filen.

Tabulatur(tabs)

                            A-stykke                            
                                           D                    
     Q    Q    Q    Q       E        E     Q    Q    Q    Q     
E||----------------------|--------------|----------------------|
B||----------------------|--3-----------|----------------------|
G||----------------------|-----------4--|--2-------------------|
D||--0----0----0----0----|--------------|-------4----0----4----|
A||----------------------|--------------|----------------------|
E||----------------------|--------------|----------------------|


                                                   A                       
  E  E  E  E  Q    E  E     Q    Q    Q    Q       E  E  E  E  Q    E  E   
-------------------------|----------------------|-------------------------|
-----3--L-----3----3-----|----------------------|-------------------3-----|
--2--------4----------4--|--2-------------------|--2-------------------4--|
-------------------------|-------4----0----4----|-----2-----4--2----------|
-------------------------|----------------------|-------------------------|
-------------------------|----------------------|-------------------------|


  D                                                         A          
  Q    Q    Q    Q       E  E  E  E  Q    Q       Q    Q    Q    Q     
----------------------|------------------------|--2---------0---------|
----------------------|-----3--L-----3----5----|-------3---------2----|
--2-------------------|--2--------4------------|----------------------|
-------4----0----4----|------------------------|----------------------|
----------------------|------------------------|----------------------|
----------------------|------------------------|----------------------|


                            Variation                      
  D                                                        
  E  E  E  E  Q    E  E     E         E  E  E  Q    E  E   
-------------------------|--------------------------------|
--3----------------3-----|--------------------------------|
-----2----------------4--|--2---------4--2----------------|
--------4--2--0----------|------------------4--0----3--4--|
-------------------------|--------------------------------|
-------------------------|--------------------------------|


                            A                          D                       
  E  E  E  E  Q    E  E     E  E  E  E  E  E  E  E     E  E  E  E  Q    E  E   
-------------------------|--------------------------|-------------------------|
--------3--5--3----3-----|--------------------------|-------------------3-----|
--2--4----------------4--|--2--4--2-----------------|--2--4--2-------------4--|
-------------------------|-----------4--0--2--3--4--|-----------4--2----------|
-------------------------|--------------------------|-------------------------|
-------------------------|--------------------------|-------------------------|


                                                      G           A            
  E  E  E  E  Q    E  E     E  E  E  E  Q    E  E     E  E  E  E  E  E  E  E   
-------------------------|-------------------------|--2--0-----2--0--------0--|
-------------------------|-----3--3--5--3----3--5--|--------3--------3--2-----|
--2--4--2----------------|--2----------------------|--------------------------|
-----------4--0----3--4--|-------------------------|--------------------------|
-------------------------|-------------------------|--------------------------|
-------------------------|-------------------------|--------------------------|


                           B-stykke                                           
  D                                                      A7                   
  E  E  E  E  Q    Q       E        E  Q    Q    Q       Q    Q    Q    Q     
------------------------|--2--------0--2----5----2----|--0----2----3---------|
--3----------------3----|-----------------------------|----------------------|
-----2------------------|-----------------------------|----------------------|
--------4--2--0---------|-----------------------------|----------------------|
------------------------|-----------------------------|----------------------|
------------------------|-----------------------------|----------------------|


  D                        A7                     D                      
  E  E  E  E  Q    Q       Q    Q    Q    Q       E  E  E  E  Q    Q     
--2--0--2--3--5----2----|--0--------------5----|--2--0--2--3--5----2----|
------------------------|-------2--------------|------------------------|
------------------------|------------2---------|------------------------|
------------------------|----------------------|------------------------|
------------------------|----------------------|------------------------|
------------------------|----------------------|------------------------|


  A7                     D           A7             D                      
                                                                     v     
  Q    Q    Q    Q       E  E  E  E  E  E  E  E     E  E  E  E  Q    Q     
--0----2----3----0----|--2--0-----2--0--------0--|-------------------2----|
----------------------|--------3--------3--2-----|--3----------------3----|
----------------------|--------------------------|-----2-------------2----|
----------------------|--------------------------|--------4--2--0----0----|
----------------------|--------------------------|------------------------|
----------------------|--------------------------|------------------------|


-------|-------||
-------|-------||
-------|-------||
-------|-------||
-------|-------||
-------|-------||


Facebook kommentarer

Genre

Flatpicking

Spillestil

Flatpicking

mp3

Guitarpro

Forfatter

Fridrikur